» » »

The Word Alive, Casanova Rodeo Tabs (ver.1)

Artists:  A B C D E F G H I J K L M N O P Q R S T U V W X Y Z # 

Casanova Rodeo Tabs (ver.1)

The Word Alive Tabs
 Rating:
4.6/5 (10 votes)
Casanova Rodeo lessons Tabs too difficult? Try these video lessons and learn fast
1
                                      casanova rodeo-the word alive


            this tab is pretty accurate so yeah this song is fun to play
        i will include some parts from the version with craig and some from the versions 
telle:) have fun kiddos:)


on the intro its really heavy palm mutes do that for awhile
E---------------------------------------------------------------------------|
B---------------------------------------------------------------------------|
G---------------------------------------------------------------------------|
D---------------------------------------------------------------------------|
A------0-00-0-0-00-0-0-00-0-0-00-0------------------------------------------|
D-12/1-0-00-0-0-00-0-0-00-0-0-00-0------------------------------------------|

then this sick riff.theres two ways to play and there both right but ill just tab 
out the easier one
E----------------------------------------------------------------------|
B-5h6h5----------------------------------------------------------------|
G-------7-5h7h5--------------------------------------------------------|
D---------------7-5h7h5------------------------------------------------|
A-----------------------7-5h7h5----------------------------------------|
D-------------------------------7-5h7h5/3--3h0-3h0-3h0-----------------|do it four times

big riff
E----------------------------------------------------------------|
B----------------------------------------------------------------|
G----------------------------------------------------------------|
D----------------------------------------------------------------|
A----------------------------------------------------------------|
D-0(x16)-5(x4)-3(x4)-(repeat 4 times)----------------------------|

theres two guitars at this part one is repeating the riff above but throwing some palm 
in there and the other is doing this
E---------------------------------------------------------------|
B---------------------------------------------------------------|
G-7----77----7--7--7-1515-1414--7----77-----7--7--7--101099-----|
D-x----xx----x--x--x--x-x--x-x--x----xx-----x--x--x--x-x-xx-----|
A-555555555555555555-1313-1212--555555555555555555--8-8-77------|
D---------------------------------------------------------------|
   ****  **** ** **              ****  ****  ** **


repeat the big riff twice then the riff above four times then it goes to this part
"DEAD,MEN,TELL,NO,LIES."
E---------------------------------------------------------------|
B-----------------------------10h0-10h0-10h11p10----------------|(x4 times)
G------------------------------------------------12-------------|
D---------------------------------------------------------------|
A-000000-000000-000000-000000-----------------------------------|
D-000000-000000-000000-000000-----------------------------------|
  ****** ****** ****** ******
repeat this whole riff until the breakdown

BREAKDOWN
"HEARTS WILL BREAK TONIGHT"
E------------------------------------------------------------------------|
B------------------------------------------------------------------------|
G------------------------------------------------------------------------|
D------------------------------------------------------------------------|
A------------------------------------------------------------------------|
D-000000(x8)-00-00-0-0-00-00-0-00000000-00-00-0-0-3*-00-00-0-00000000----|
  ******     ** ** * * ** ** * ******** ** ** * *    ** ** * ********

E------------------------------------------------------------------|
B------------------------------------------------------------------|
G------------------------------------------------------------------|
D-O~-THEN REPEAT BIG RIFF TWICE------------------------------------|
A-O~---------------------------------------------------------------|
D-O~---------------------------------------------------------------|


this part is from the new version of casanova rodeo when you do the 5h8 hammer on thing 
your doing it try to bend the string down to give it the word alive sound
E----------------------------------------------------------------|
B----------------------------------------------------------------|
G----------------------------------------------------------------|
D----------------------------------------------------------------|
A----------------------------------------------------------------|
D-1p0-0000-1p0-1p0-00-1p0-0000-1p0-1p0-00--5h8h5h8h5h8h5h8h5h8---|

then repeat the "dead men tell no lies riff"
then after that do this

E-----------------------------------------------------------------------|
B-----------------------------------------------------------------------|
G-----------------2h3p2-------------------------------------------------|
D-7h8p7-----------------532-------3--2---5--3--2h3p2--------------------|
A-------1087----------------535-55--5--55-55-5-------3------------------|
D------------10810------------------------------------------------------|
repeat this until theres the pause then you do pinched harmonic on the 6th fret on the d 
and repeat the intro but slower


questions or such just comment
            
Submit corrections

comments powered by Disqus
↑ Back to top | The Word Alive Tabs for Casanova Rodeo. Lyrics for acoustic guitar and electric guitar. 1 Tablatures and chords are parodies/interpretations of the original songs. You may use it for private study, scholarship, research or language learning purposes only