>
 >
Battle Royale

Battle Royale Guitar Tabs

The Word Alive - Battle Royale chords, tabs, tablatures, lyrics

Guitar lessons | Add/correct | Request | Top 50 tabs Artists:  A B C D E F G H I J K L M N O P Q R S T U V W X Y Z 0-9

Battle Royale Guitar Tabs – The Word Alive

CD, Sheet music, Poster

Do you like Battle Royale? Share with your friends now
Tabs
Battle royale by The Word Alive.

I have updated this tab recently, ive added a rythem for a chorus(at the bottom) 
and tweaked some spots. This is it. "no rythem for the solos" sorry brah.

Tuning: dropD/dropC

Let ring throughout and play twice.

e|-----------------------------------------------------------------------|
B|----------6---------------6------------------11---------------15-------|
G|------9-----9-------9-------9-----------14-----14-------14------14-----|
D|--7-----7-----7-------7-------7---------------------------12------12---|
A|--0-------------8-------8-------8--/13----13-----13-10------10------10-|
D|-----------------------------------------------------------------------|

Guitar break(4x)

Gtr1
e||-----------------------------------------------------------------------|
B||------10---------------------------------------------------------------|
G||------x----------------------------------------------------------------|
D||------7------------------------------------8---8-8-9--------8--8-8-8-8-|
A||--0-0---0------15-------12-----------------12--121212-------12-12121212|
D||--0-0---0--0-12--12-0-8----8-0-----0-----00---0--------0--00--0--------|



Gtr2

e||-----------------------------------------------------------------------|
B||------10---------------------------------------------------------------|
G||------x----------------------------------------------------------------|
D||------7------------------------------------8---8-8-9--------8--8-8-8-8-|
A||--0-0---0------12------8------------------12--121212-------12-12121212-|
D||--0-0---0--0-8---8-0-5---5-0-----0------00---0--------0--00--0---------|


Repeat 3 more times. 
                                          
and then this part you can add some pinch harmonics the 
parts that are not palm muted.

e||---------------------------------------------------|
B||---------------------------------------------------|
G||---------------------------------------------------|
D||---------------------------------------------------|
A||-0-0-0-0---0-0--0--------1-------4---3-------------|
D||-0-0-0-0---0-0--0--0-1-4---4-1-0---0---0-----------|
    * * * *   * *  *  * * *   * * *   *   *

e||---------------------------------------------------|
B||---------------------------------------------------|
G||---------------------------------------------------|
D||----------------------------------1h4p1p0----------|
A||-0-0-0-0---0-0--0--0-------1h4p1p0--------------3b-|
D||-0-0-0-0---0-0--0--0--1-4----------------1h4p1p0---|
    * * * *   * *  *  *  * *              
e||------------------------------------------|
B||--------------------6-----6-----6-----6---|
G||----------------------9-----9-----9-----9-|
D||------------------------7-----7-----7-----|
A||-0-0-0-0---0-0--0-------------------------|
D||-0-0-0-0---0-0--0-------------------------|
    * * * *   * *  *   * * * * * * * * * * *
e||------------------------------------------------------------------------------------|
B||--------------------11-------11-----------11-----11-----11-----11-----11-----11-----|
G||-----------------------14-------14--------14-----14-----14-----14-----14-----14-----|
D||--------------------------12-------12-121212-121212-121212-121212-121212-121212-----|
A||-0-0-0-0---0-0--0-------------------------------------------------------------------|
D||-0-0-0-0---0-0--0-------------------------------------------------------------------|
                       *  *  *  *  *  *  *    
Catchy part:) i think its pretty close.


e|----------|--------------------------------------------------------------|
B|----------|-----------------------------------10----10----10----10----11-|
G|----------|-------------------------3------------7-----7-----7----7-6----|
D|----------|------7----------7-----7---7------------8-----8-----8---------|
A|----------|---------------0-----5-------5--------------------------------|
D|-12-10-0--|--0-8----8-7-3-----3------------0-----------------------------|
             repeat this again.                 * * * * * * * * * * *


e|------------------------------------------------------------|
B|--8-8------1111-------1414------1717------------------------|
G|--x-x-------x-x--------x-x-------x-x------------------------|
D|--5-5-------8-8-------1111------1414------------------------|
A|------------------------------------------------------------|
D|------0000------0000------0000------19/---------------------|
        ****      ****      ****
Chorus thingy.

  palm mute all of these.
e|-------------------------------------------------------------|
B|-------------------------------------------------------------|
G|-------------------------------------------------------------|
D|-------------------------------------------------------------|(2x)
A|--000-000-000-000-000-000--00000000--------------------------|
D|--000-000-000-000-000-000--00000000--------------------------|

Trem pick these.

e|-----------------20--17------------------------------------|
B|--15--17--18-------------18---17--18-----------------------|
G|--------------17-------------------------------------------|
D|-----------------------------------------------------------|
A|-----------------------------------------------------------|
D|-----------------------------------------------------------|

e|-------------------------------------------------------------|
B|-------------------------------------------------------------|
G|-------------------------------------------------------------|
D|-------------------------------------------------------------|(2x)
A|--000-000-000-000-000-000--00000000--------------------------|
D|--000-000-000-000-000-000--00000000--------------------------|

And these.

e|-------------20-17-------------------20----------------|
B|--15-17-18---------17-18-15-17-18-17-------------------|
G|-----------17------------------------------------------|
D|-------------------------------------------------------|
A|-------------------------------------------------------|
D|-------------------------------------------------------|

This part has a lot of delay.

e|--20--20-17---17---------------------------------------|
B|-----------------18---18-17---17-----------------------|
G|---------------------------------19--17----------------| 
D|-------------------------------------------------------| 3times.
A|-------------------------------------------------------|
D|-------------------------------------------------------|

on the 4th time its.
e|-------------------------------------------------------|
B|-----------------------------18--17--15----------------|
G|---14---14-17---17-12---12-----------------------------|
D|-------------------------------------------------------| 
A|-------------------------------------------------------|
D|-------------------------------------------------------|

Pre solo (2x)

e|--------------------------8p0-------3---3/5-----------------------|
B|----------5--6----5h6p5-------5h6-0---0-----0-5-0-5h6p5-----------|
G|----5h7-----------------7-------------------------------7-5-------|
D|------------------------------------------------------------------|
A|------------------------------------------------------------------|
D|------------------------------------------------------------------|

SOLO! sound right to me.

Part1

e|--128-----------------12H15P12------------6h10p6--------6h10T-17p10p6-----|
B|-----10-------------13--------13--------8-------8------8--------------8---|
G|-------9---------12-------------12-----7---------7----7-----------------7-|
D|--------10-----14-----------------14--8-----------8--8--------------------|
A|----------12-15---------------------10-------------10---------------------|
D|--------------------------------------------------------------------------|

e|-----5h9p5-------5h9T14p9p5--------6h10T15p10p6----------8h12T17p12p8---|
B|----7-----7-----7-----------7------8-----------8-------10------------10-|
G|---6-------6---6-------------6----7-------------7-----9----------------9|
D|--7---------7-7---------------7--8---------------8--10------------------|
A|-9-----------9-----------------10-----------------12--------------------|
D|------------------------------------------------------------------------|

Part2 This first section you will pull of between 13 and 10, and then 11 and 10 etc.

e|--1310----1310----1310----13101310-129----129---129---129--T1713---------|
B|------1110----1110----1110------------109----109---109-------------------|
G|-------------------------------------------------------------------------|
D|-------------------------------------------------------------------------|
A|-------------------------------------------------------------------------|
D|-------------------------------------------------------------------------|

e|-T171310----------10T16129--------9T171310----------10T16129------------|
B|--------11------11--------10----10--------11------11--------10----------|
G|----------10--10------------9--9------------10--10------------9---------|
D|------------12---------------11---------------12------------------------|
A|------------------------------------------------------------------------|
D|------------------------------------------------------------------------|

Next part
                     (natural harmonics)
e|------------------------5-5-5-----------------------------------|
B|------------------------5-5-5-----------------------------------|
G|------------------------5-5-5-----------------------------------|
D|----------------------------------------------------------------|
A|--0---0---------0----0-------------------------------------------|
D|--0---0---------0----0-------------------------------------------|
    *    *        *    *

Repeat with song.
   (all palm muted)
e|------------------|------------------|--------------------|------------------------|
B|------------------|------------------|--------------------|------------------------|
G|------------------|------------------|--------------------|------------------------|
D|------------------|------------------|--------------------|------------------------|
A|--0000-00---00-00-|--0000-00---00-00-|--0000--00---00--00-|--0000--00---00---7b----|
D|--0000-00---00-00-|--0000-00---00-00-|--0000--00---00--00-|--0000--00---00---------|

another fun part.

e|----------------------------------------------------------------|
B|----------------------------------------------------------------|
G|----------------------------------------------------------------|
D|-------------------------------------------------5h8p5----------|
A|----------------------------------------------4h7------4--------|
D|-1p0-0-0--0-0--1p0---1p0----1p0-0-0---0-0--5h8------------------|

e|----------------------------------------------------------------|
B|----------------------------------------------------------------|
G|----------------------------------------------------------------|
D|----------------------------------------------------------------|
A|------------------------------------------------4v--------------|
D|-1p0-0-0--0-0--1p0---1p0----1p0-0-0---0-0--1p0------------------|


e|-------------------------------------------------------------|
B|-------------------------------------------------------------|
G|-------------------------------------------------------------|
D|-------------------------------------------------------------|(2x)
A|--000-000-000-000-000-000--00000000--------------------------|
D|--000-000-000-000-000-000--00000000--------------------------|

e|-----------------20--17------------------------------------|
B|--15--17--18-------------18---17--18-----------------------|
G|--------------17-------------------------------------------|
D|-----------------------------------------------------------|
A|-----------------------------------------------------------|
D|-----------------------------------------------------------|

e|-------------------------------------------------------------|
B|-------------------------------------------------------------|
G|-------------------------------------------------------------|
D|-------------------------------------------------------------|(2x)
A|--000-000-000-000-000-000--00000000--------------------------|
D|--000-000-000-000-000-000--00000000--------------------------|

And these.

e|-------------20-17-------------------20----------------|
B|--15-17-18---------17-18-15-17-18-17-------------------|
G|-----------17------------------------------------------|
D|-------------------------------------------------------|
A|-------------------------------------------------------|
D|-------------------------------------------------------|

This part has a lot of delay.

e|--20--20-17---17---------------------------------------|
B|-----------------18---18-17---17-----------------------|
G|---------------------------------19--17----------------| 
D|-------------------------------------------------------| 3times.
A|-------------------------------------------------------|
D|-------------------------------------------------------|

on the 4th time its.
e|-------------------------------------------------------|
B|-----------------------------18--17--15----------------|
G|---14---14-17---17-12---12-----------------------------|
D|-------------------------------------------------------| 
A|-------------------------------------------------------|
D|-------------------------------------------------------|



Outro.
theres a certain rythme for the picking pattern but
it sounds fine if you trem.

e|--10----8--13-12--------18--17-------------------------|
B|------------------8--10--------------------------------|
G|-------------------------------------------------------|
D|-------------------------------------------------------| 
A|-------------------------------------------------------|
D|-------------------------------------------------------|

********Heres the rythm for the chorus!*********


e|------------------------------------------------------------------------|
B|--6-6---6-6---6-6---6-6-6-6---10-10---10-10---10-10--10-10-10-10--------|
G|--2-2---2-2---2-2---2-2-2-2---9--9----9--9----9--9---9--9--9--9---------|
D|--5-5---5-5---5-5---5-5-5-5---10-10---10-10---10-10--10-10-10-10--------| 
A|--5-5---5-5---5-5---5-5-5-5---10-10---10-10---10-10--10-10-10-10--------|
D|--5-5---5-5---5-5---5-5-5-5---10-10---10-10---10-10--10-10-10-10--------|
 
 It then plays the gallop open not thing and then you
  
  Play each bar 4X
                               'This is the 2nd part of the chorus   
e|-----------|---------------||---------|---------|---------|-------------------------|
B|--6-6-6-6--|--10-10-10-10--||-8-8-8-8-|-5-5-5-5-|-8-8-8-8-|-10-10-10-10-11-11-11-11-|
G|--2-2-2-2--|--9--9--9--9---||-7-7-7-7-|-2-2-2-2-|-7-7-7-7-|-9--9--9--9--9--9--9--9--|
D|--5-5-5-5--|--10-10-10-10--||-8-8-8-8-|-5-5-5-5-|-8-8-8-8-|-10-10-10-10-11-11-11-11-|
A|--5-5-5-5--|--10-10-10-10--||-8-8-8-8-|-5-5-5-5-|-8-8-8-8-|-10-10-10-10-11-11-11-11-|
D|--5-5-5-5--|--10-10-10-10--||-8-8-8-8-|-5-5-5-5-|-8-8-8-8-|-10-10-10-10-11-11-11-11-|




Please if you have found any better way of playing a part help me i worked really
hard on this song.

h=hammeron
p=pulloff
/=slide upward
v=vibrato
T=tap
*=palm mute





Comments


Popular The Word Alive tabs & chords
2012 Bass Tabs
Entirety Bass Tabs
Casanova Rodeo Tabs
Consider It MutualIntro Tabs
Like Father Like Son Tabs
The Devil Inside Tabs
The Devil Inside 2 Tabs
The Hounds Of Anubis Tabs
The Wretched Tabs
You're All I See Tabs


Song lyrics



↑ Back to top | Tablatures and chords are parodies/interpretations of the original songs. You may use it for private study, scholarship, research or language learning purposes only
© 2014 AZChords.com Contact us | Privacy policy | DMCA | Add/correct tabs | Request tabs | Top 50 tabs