>
 >
Are You On Drugs

Are You On Drugs Guitar Tabs

The Word Alive - Are You On Drugs chords, tabs, tablatures, lyrics

Guitar lessons | Add/correct | Request | Top 50 tabs Artists:  A B C D E F G H I J K L M N O P Q R S T U V W X Y Z 0-9

Are You On Drugs Guitar Tabs – The Word Alive

CD, Sheet music, Poster

Do you like Are You On Drugs? Share with your friends now
Tabs
                        are you on drugs?-The word alive

                  this is a pretty accurate tab for this song the intro i have no clue
so its pretty much guessing but the rest of the song is almost 100% :D i know almost all
songs so expect tons more! listen to there music and buy there ep!


E-------------------------|
B-------------------------|
G-------------------------|
D-(7)~~~------------------|the 7 is a harmonic
A-------------------------|
D-------------------------|

E------------------------------------------------------------------|
B-------------------15---------------------------------------------|
G-----------------14-----------------------------------------------|
D------12-----1212-----(X2)----------------------------------------|
A----12--12h13-----------------------------------------------------|
D--12--------------------------------------------------------------|

E------------------------13-----------------------------------|
B--------------10h11-1010-------------------------------------|
G---------10h12------------------1010101010-8-----------------|
D-------10---------------------10-----------------------------|
A-----10---------------------10-------------------------------|
D---10----------------------8---------------------------------|
                                         after that eight the patter ends with this
then you just repeat this riff until you reach the strumming but like i said these notes are
much random so it will sound horrible but its a start,right?


E-----------------------------------------------------------------|
B--10-------------------------------------------------------------|
G--7--------------------------------------------------------------|
D--8--------------------------------------------------------------|
A-----------------------------------------------------------------|
D-----------------------------------------------------------------|

okay well here are the chords for the strumming i know you can figure out the timing and
so i wont tab that out lol im lazy


E---------|
B-10------|(just do that until distorted guitars come in)
G-7---10--|
D-8---7---|
A-----8---|
D---------|


YAY DISTORTION!!! WITH LOTS OF TREMELO PICKING!!!!(t)=tremelo picking
again, i know you can figure out the timing for these just listen to the song lol

E-13(t)12(t)10(t)-18(t)17(t)15(t)-13(t)12(t)10(t)---17bbb(t)-----|
B----------------------------------------------------------------|
G----------------------------------------------------------------|
D----------------------------------------------------------------|
A----------------------------------------------------------------|
D----------------------------------------------------------------|

E-13(t)12(t)10(t)-18(t)17(t)15(t)-13(t)12(t)10(t)--8(t)9(t)------|
B----------------------------------------------------------------|
G----------------------------------------------------------------|
D----------------------------------------------------------------|
A----------------------------------------------------------------|
D----------------------------------------------------------------|


okay well this section right here is all tremelo so im not gonna label it with the 
know that this is all tremelo
E-22-20-22-20-22-17-18-17-18-17-18-15-17-15-17-15-17-13-15-13-15-13-15bb-|
B------------------------------------------------------------------------|
G------------------------------------------------------------------------|
D------------------------------------------------------------------------|
A------------------------------------------------------------------------|
D------------------------------------------------------------------------|

then all that ends with this little note
E-10~~~~~--------------------------------------------------------|
B----------------------------------------------------------------|
G----------------------------------------------------------------|
D----------------------------------------------------------------|
A----------------------------------------------------------------|
D----------------------------------------------------------------|

awesome drum fill goes here then...you guessed it! more tremelo picking!
this is all done on the high e string..my b string disapeared....
E---------10-8-17-10-13-8-------------------------------------------|(repeat 3 times)
G-------------------------------------------------------------------|
D-------------------------------------------------------------------|
A-000000------------------------------------------------------------|
D-000000------------------------------------------------------------|
  ******
and you do this on the fourth time

E--10-8-17bbb-10-13-8-------------------------------------------|
B---------------------------------------------------------------|
G---------------------------------------------------------------|
D---------------------------------------------------------------|
A---------------------0-000-0-000-0-0-and this is done 4times---|
D---------------------0-000-0-000-0-0---------------------------|


MORE TREMELO!!
all done in tremelo....

E-13-12-5-7-5-7(x2)--8-10-7-5-7-5--8-10-12-13-12-10--------------|
B----------------------------------------------------------------|
G----------------------------------------------------------------|
D----------------------------------------------------------------|
A----------------------------------------------------------------|
D----------------------------------------------------------------|

E-13-12--15-17--13-12--15-17--8-10-7-5-7-5--8-10-12-13bb---------|
B----------------------------------------------------------------|
G----------------------------------------------------------------|
D----------------------------------------------------------------|
A----------------------------------------------------------------|
D----------------------------------------------------------------|

bridge

E----------------------------------------------------------------|
B----------------(triplet)---------------------------------------|
G-15------15-14--15-15-15--14--14--------------------------------|repeat until solo starts
D-12------12-12--12-12-12--12--12--------------------------------|
A-13-1313-13-13--13-13-13--13--13--------------------------------|
D----------------------------------------------------------------|

 sOLO!! lol this solo is sweeping but only sounds good if you play iy along with the
probably cause its horribly wrong

E-17-13----------13-17(x2)15-12----------12-15(x2)13-10----------101-|3(x4)
B------15------15--------------13------13--------------11------11----|
G--------14--14------------------12--12------------------10--10------|
D----------15----------------------14----------------------12--------|
A--------------------------------------------------------------------|
D--------------------------------------------------------------------|
            then the keyboard does it also because he totally owns and the rhythm to 
is this
E----------------------------------------------------------------|
B----------------------------------------------------------------|
G----------------------------------------------------------------|
D----------------------------------------------------------------|
A--0-000-0-000-00------------------------------------------------|
D--0-000-0-000-00------------------------------------------------|
   * *** * *** **


the after the keyboard solo there is the palm muted thing which is the same as the
for the keyboard solo but just slower


then chorus again and then this cool little riff

E----------------------------------------------------------------|
B-8h10h8-10h11h10------------------------------------------------|
G-----------------12p10----------10h12h10------------------------|
D-----------------------10h12h10----------12---------------------|
A----------------------------------------------------------------|
D----------------------------------------------------------------|
repeat until that screamo part


E----------------------------------------------------------------|
B----------------------------------------------------------------|
G---------------------------8*/------(do this twicw)-------------|
D----------------------------------------------------------------|
A----------------------------------------------------------------|
D-0-1-0-0--80-0-1--000--00---------------------------------------|


the next part is just made up of open d plam muted chords you can just find out the
top d string from 12 to the nut of the guitar then more palm muted open chords you can 
do just by hearing it then its over!!

any questions or such just leave a comment thank you for looking at my tab also check
my how to build an empire song and the devil inside:)





Comments


Popular The Word Alive tabs & chords
Entirety Bass Tabs
Casanova Rodeo Tabs
Casanova Rodeo 2 Tabs
Epiphany 1 Tabs
How To Build An Empire Tabs
How To Build An Empire 2 Tabs
Like Father Like Son Tabs
The Devil Inside 1 Tabs
The Hounds Of Anubis Tabs
The Wretched Tabs


Song lyrics



↑ Back to top | Tablatures and chords are parodies/interpretations of the original songs. You may use it for private study, scholarship, research or language learning purposes only
© 2014 AZChords.com Contact us | Privacy policy | DMCA | Add/correct tabs | Request tabs | Top 50 tabs