>
 >
2010

2010 Guitar Tabs

The Word Alive - 2010 chords, tabs, tablatures, lyrics

Guitar lessons | Add/correct | Request | Top 50 tabs Artists:  A B C D E F G H I J K L M N O P Q R S T U V W X Y Z 0-9

2010 Guitar Tabs – The Word Alive

CD, Sheet music, Poster

Do you like 2010? Share with your friends now
Tabs
[2010] <-- F. M. L. sry, epic fail. my bad :P let it be known, im Actually retarded. lol 
sense changin it.. the file name wont change with it.. gahh
for whats its worth, i hope its a good tab :P

[Deceiver]
[The Word Alive]

Tuning: Drop B (BF#BEG#C#/Drop D 1.5 steps down)

As Requested By: JRohrer14

use this as a guideline.. :P there tone makes it impossible to decifer
there songs :P ill give you as much detail as possible lol but you should
decide for yurself. cuz i guarentee you everyone hears it differently :P

here goess:

[Riff 1] - [00:00] - [00:13]--------| 4x
- ----------------------------------|
- ----------------------------------|
- -7-----------------------7b-------|
- ----------------------------------|
- ----------------------------------|
- ----------------------------------|
AP ...............................

[Riff 2] - [00:13] - [00:14]
- -----------------|
- -----------------|
- -----------------|
- -----------------|
- -0-0-00-00-------|
- -1-1-11-11-------|
PM .........

----------------------------------------------------------------------------

[Riff 3] - [00:14] - [00:29]
- -----------------------------------------------------------------|
- -----------------------------------------------------------------|
- -----------------------------------------------------------------|
- -----------------------------------------------------------------|
- -0-0-00-00-----000-----000-00000-0-0-00-00-----000-----000--0--0-|
- -0-0-00-00-----000-----000-00000-0-0-00-00-----000-----001--1--1-|
PM ...............................................................

- -----------------------------------------------------------------|
- -----------------------------------------------------------------|
- -----------------------------------------------------------------|
- ---------------------------------------------------------------1-|
- -0-0-00-00-----000-----000-00000-0-0-00-00-----000-----000--0--0-|
- -0-0-00-00-----000-----000-00000-0-0-00-00-----000-----001--1--1-|
PM ............................................................

----------------------------------------------------------------------------

[Riff 4, Guitar 1 & 2] - [00:29] - [00:41]
- ------------------------------------------------------------------|
- ------------------------------------------------------------------|
- ------------------------------------------------------------------|
- ------------------------------------------------------------------|
- -5-----------5---------------7---5-----------5-----------8---7----|
- -------0-----------8-7-0-3-------------0-----------8-7-0----------|
AP ...............................................................
-
- ------------------------------------------------------------------|
- ------------------------------------------------------------------|
- ------------------------------------------------------------------|
- ------------------------------------------------------------------|
- ---------------------------------0-0---------------0-00--00--0000-|
- ---------------------------------0-0---------------0-00--00--0000-|
PM                                 ................................


- ------------------------------------------------------------------|
- ------------------------------------------------------------------|
- ------------------------------------------------------------------|
- ------------------------------------------------------------------|
- -5-----------5---------------7---5-----------5-----------8---7----|
- -------0-----------8-7-0-3-------------0-----------8-7-0----------|
AP ...............................................................
-
- ------------------------------------------------------------------|
- ------------------------------------------------------------------|
- ------------------------------------------------------------------|
- ------------------------------------------------------------------|
- ---------------------------------0-0---------------0-00--00--00---|
- ---------------------------------0-0---------------0-00--00--00---|
PM                                 ..............................

dno if this is guitarr :PP here it is anyway lol

[Riff 5, Guitar 1 & 2] - [00:41] - [00:43]
- -----------------|
- -----------------|
- -----------------|
- -----------------|
- -0-----0000-00---|
- -0-----0000-00---|
PM .............
-
- -----------------|
- -----------------|
- -----------------|
- -----------------|
- -0-000------00---|
- -0-000------00---|
PM .............

its tricky, it pans :P

----------------------------------------------------------------------------

[Riff 6] - [00:43] - [00:56]
- ---------------------------------|
- ---------------------------------|
- ---------------------------------|
- ---------------------------------|
- -0-----0000-00-----000-000-000---|
- -0-----0000-00-----000-000-000---|
PM .............................

----------------------------------------------------------------------------

okay here goess, again the chorus im really unsure about.. :P they just
layer them like theres no 2morro! n everything just blendsss. but ill
do my best to split up n organize what i thinks goin on... dont kill me if
its off loll, you try it :/

heres the rhythm parts i think i hear..

[Riff 7a, Guitar 1 & 2] - [00:56] - [01:09]
- ------------------------------------------------------------------|
- ------------------------------------------------------------------|
- -7-7-7-7-7-7-7-7-7-6-6-6-6-6-6-6-7-7-7-7-7-7-7-7-1010109-9-9-9-10-|
- -x-x-x-x-x-x-x-x-x-x-x-x-x-x-x-x-x-x-x-x-x-x-x-x-x-x-x-x-x-x-x-x--|
- -5-5-5-5-5-5-5-5-5-4-4-4-4-4-4-4-5-5-5-5-5-5-5-5-8-8-8-7-7-7-7-8--|
- ------------------------------------------------------------------|
-
- ------------------------------------------------------------------|
- ------------------------------------------------------------------|
- ------------------------------------------------------------------|
- -8-8-8-8-8-8-8-8-7-7-7-7-7-7-7-7-0-0-0-0-0-0-0-0-0-0-0-0-0-0-0-0--|
- -8-8-8-8-8-8-8-8-7-7-7-7-7-7-7-7-0-0-0-0-0-0-0-0-0-0-0-0-0-0-0-0--|
- -8-8-8-8-8-8-8-8-7-7-7-7-7-7-7-7-0-0-0-0-0-0-0-0-0-0-0-0-0-0-0-0--|


- -------------------------------------------------15b--------------|
- ------------------------------------------------------------------|
- -7-7-7-7-7-7-7-7-7-6-6-6-6-6-6-6-7-7-7-7-7-7-7-7------------------|
- -x-x-x-x-x-x-x-x-x-x-x-x-x-x-x-x-x-x-x-x-x-x-x-x------------------|
- -5-5-5-5-5-5-5-5-5-4-4-4-4-4-4-4-5-5-5-5-5-5-5-5------------------|
- ------------------------------------------------------------------|
-
- ------------------------------------------------------------------|
- ------------------------------------------------------------------|
- ------------------------------------------------------------------|
- -8-8-8-8-8-8-8-8-7-7-7-7-7-7-7-7-0-0-0-0-0-0-0-0------------------|
- -8-8-8-8-8-8-8-8-7-7-7-7-7-7-7-7-0-0-0-0-0-0-0-0---000-0000-00----|
- -8-8-8-8-8-8-8-8-7-7-7-7-7-7-7-7-0-0-0-0-0-0-0-0---000-0000-00----|
PM                                                   ...........

take it r leave it :P between the guitar synth n bass its
in there somewhere. now the lead.. even harder to hear :| ugh:

[Riff 7b] - [00:56] - [01:09]
- -----------------------------------------------------------------------|
- ----------10----------------11-----------------------------------------|
- ------7-----7---7-------9-----9---9---------3---3-----10----9-----9/10-|
- ---7h8--8-----8-----0h11--11----11--0-3h5h7---7---------7-----5--------|
- --------------------------------------------------5/8-----8-----7------|
- -----------------------------------------------------------------------|

- -----------------------------------------13-----12----------------------|
- ----------10----------------11------10h11---8h10---------13--13-13------|
- ------7-----7---7-------9-----9---9----------------7--/15--15-----15-14-|
- ---7h8--8-----8-----0h11--11----11--------------------------------------|
- ------------------------------------------------------------------------|
- ------------------------------------------------------------------------|

my gp will really help you hear lol n you'll hav to decide the PM for
yurself.. :/ its really hard to hear i dno if he does at all or if the
volumes just low.. anyway hav fun with that :P my best efforts after a longg
timee hahah

[Riff 8a] - [01:09] - [01:10]
- -----------------|
- -----------------|
- -----------------|
- -----------------|
- ---000-0000-00---|
- ---000-0000-00---|
PM   ...........

[Riff 8b] - [01:09] - [01:10]
- -------------------|
- -------------------|
- ---------3---------|
- ---3h5h7---7-------|
- -------------5-----|
- ---------------0---|

----------------------------------------------------------------------------

[Riff 9, Guitar 1 & 2] - [01:10] - [01:13]
- ---------------------------------|
- ---------------------------------|
- ---------------------------------|
- ---------------------------------|
- -5-----------5---------------7---|
- -------0-----------8-7-0-3-------|
AP ...............................
-
- ---------------------------------|
- ---------------------------------|
- ---------------------------------|
- -0-------------------------------|
- -0-------------------------------|
- -0-------------------------------|

[Riff 4, Guitar 1 & 2] - [01:13] - [01:26]

----------------------------------------------------------------------------

[Riff 10] - [01:26] - [01:39]
- -------------------------------------------------------------------|
- -------------------------------------------------------------------|
- -------------------------------------------------------------------|
- -------------------------------------------------------------------|
- -0000--------00000000------------0000--------00000000----0000-0-00-|
- -0000--------00000000--------1b--0000--------00000000----0000-0-00-|
PM .................................................................

- -------------------------------------------------------------------|
- -------------------------------------------------------------------|
- -------------------------------------------------------------------|
- -------------------------------------------------------------------|
- -00000-------00000000------------00000-------00000000----0000-0-0--|
- -11111-------00000000--------1b--00000-------00000000----0000-0-0--|
PM ................................................................


[Riff 7a, Guitar 1 & 2 & Riff 7b] - [01:39] - [02:05]
[Riff 8a & Riff 8b] - [02:05] - [02:06]

----------------------------------------------------------------------------

here, some noise for you :P loll im not sure if two chords overlapping..
or one wonderfully off chord haha but ive only got an idea of what sounds
close :P you play either of these, it okay, probably not right tho:

[Riff 11, Guitar 1 & 2] - [02:06] - [02:20]----| 4x
- ---------13----------13----------------------|
- ---------17----------17----------------------|
- ---------15----------15----------------------|
- -0-------0-----------0-----------------------|
- -0-------------------------------------------|
- -0-------------------------------------------|
-
- ---------0-----------0------|
- ---------5-----------5------|
- ---------7-----------7------|
- -0-------8-----------8------|
- -0--------------------------|
- -0--------------------------|

experiment with it i dnoo :P oh n i use upstrokes :P sounds right-er hehe

----------------------------------------------------------------------------

[Riff 12] - [02:20] - [02:33]
- ------------------------------------------------------------------|
- ------------------------------------------------------------------|
- ------------------------------------------------------------------|
- ------------------------------------------------------------------|
- -0---00-00-------00-00---00-00---0---00-00-0-0--------------------|
- -0---00-00-------00-00---00-00---0---00-00-0-0-0000-00-0000-012\--|
PM .................................................  .  ...  .

- ------------------------------------------------------------------|
- ------------------------------------------------------------------|
- ------------------------------------------------------------------|
- ------------------------------------------------------------------|
- -0---00-00-------00-00---00-00---0---00-00-0-0--------------------|
- -0---00-00-------00-00---00-00---0---00-00-0-0-0000-00-0000-00----|
PM .................................................  .  ...  .


Let ring second time through.

----------------------------------------------------------------------------

[Riff 13] - [02:33] - [02:36]
- ---------------------------------|
- ---------------------------------|
- -7-7-7-7-7-7-7-7-7-6-6-6-6-------|
- -x-x-x-x-x-x-x-x-x-x-x-x-x-------|
- -5-5-5-5-5-5-5-5-5-4-4-4-4-------|
- ---------------------------------|

see listen to this tone! :@:@ rrgh, hows anyone supposed to hear thatt...

then lead into [Riff 7a, Guitar 1 & 2 & Riff 7b] from [02:36] - [02:58]
played twice and end with [Riff 8a] from [02:58] - [03:02] and done!

----------------------------------------------------------------------------

[Symbols]

b     Bend
PM... Palm Mute notes with (...) under them
AP... Alternate Pick notes with (...) under them
/     Slide Up
\     Slide Down
h     Hammer On
p     Pull Off
x     Dead Note





Comments


Popular The Word Alive tabs & chords
Entirety Bass Tabs
2012 1 Tabs
Are You On Drugs Tabs
Battle Royale Tabs
Epiphany 1 Tabs
How To Build An Empire 2 Tabs
The Devil Inside Tabs
The Devil Inside 1 Tabs
The Hounds Of Anubis 3 Tabs
The Wretched Tabs


Song lyrics



↑ Back to top | Tablatures and chords are parodies/interpretations of the original songs. You may use it for private study, scholarship, research or language learning purposes only
© 2014 AZChords.com Contact us | Privacy policy | DMCA | Add/correct tabs | Request tabs | Top 50 tabs