» » »

The Wood Brothers, Blue And Green Tabs (ver.1)

Artists:  A B C D E F G H I J K L M N O P Q R S T U V W X Y Z # 

Blue And Green Tabs (ver.1)

The Wood Brothers Tabs
Rating:
0/5 (0 votes)
Blue And Green lessons Tabs too difficult? Try these video lessons and learn fast
                This is the verse, the rest of the song pretty much is the same.  He starts strumming 
half way through.

E|-0--------0---0---------------|------------------------------|------------------------------|
B|-1--------1---1---3-----------|-3--------0---0---------------|----------0---0---3---3-------|
G|--------------------------0---|------------------0-------0---|-1----------------------------|
D|------2---------------2-------|------0---------------0-------|--------------------------2---|
A|-3------------3---------------|------------------------------|------2---------------2-------|
E|------------------------------|-3------------3---------------|-0------------0---------------|


E|------------------------------|---------------------------------|------------------------------|
B|-1----------------------------|---------------------1---1-------|-1----------------1---1-------|
G|----------2---2---0---0---0---|-------------0---0-----------0---|----------0---0-----------0---|
D|------3---------------2-------|---------2---------------2-------|------2---------------2-------|
A|------------------------------|-3---------------3---------------|-3------------3---------------|
E|-1------------1---------------|---------------------------------|------------------------------|


E|------------------------------|------------------------------|-0--------0---0---------------|
B|-1----------------1---1-------|-1----------------1---1-------|--------------1---3-----------|
G|----------0---0-----------0---|----------0---0-----------0---|--------------------------0---|
D|------2---------------2-------|------2---------------2-------|------2---------------2-------|
A|-3------------3---------------|-3------------3---------------|-3------------3---------------|
E|------------------------------|------------------------------|------------------------------|


E|------------------------------|------------------------------|------------------------------|
B|-3--------0---0---------------|----------0---0---3---3-------|-1----------------------------|
G|------------------0-------0---|-1----------------------------|----------2---2---0---0---0---|
D|------0---------------0-------|--------------------------2---|------3---------------2-------|
A|------------------------------|------2---------------2-------|------------------------------|
E|-3------------3---------------|-0------------0---------------|-1------------1---------------|


E|---------------------------------|------------------------------|------------------------------|
B|---------------------1---1-------|-1----------------1---1-------|-1----------------1---1-------|
G|-------------0---0-----------0---|----------0---0-----------0---|----------0---0-----------0---|
D|---------2---------------2-------|------2---------------2-------|------2---------------2-------|
A|-3---------------3---------------|-3------------3---------------|-3------------3---------------|
E|---------------------------------|------------------------------|------------------------------|


E|-0----------------------------|------------------------------|------------------------------|
B|------------------0---0-------|-1----------------1---1-------|------------------1---1-------|
G|----------1---1-----------1---|----------2---2-----------2---|-2--------2---2-----------2---|
D|------2---------------2-------|------3---------------3-------|------0---------------0-------|
A|--------------2---------------|------------------------------|------------------------------|
E|-0----------------------------|-1------------1---------------|-2------------2---------------|


E|------------------------------|-0----------------------------|-----------------|
B|-0----------------0---0-------|------------------0---0-------|-1----1----1-----|
G|----------0---0-----------0---|----------1---1-----------1---|-2----2----2-----|
D|------0---------------0-------|------2---------------2-------|-----------------|
A|------------------------------|------------------------------|-0----0----0-----|
E|-3------------3---------------|-4------------4---------------|-----------------|
            
Submit corrections

comments powered by Disqus
↑ Back to top | The Wood Brothers Tabs for Blue And Green. Lyrics for acoustic guitar and electric guitar. Tablatures and chords are parodies/interpretations of the original songs. You may use it for private study, scholarship, research or language learning purposes only