» » »

Boris The Spider Bass tabs (ver.3)

Artists:  A B C D E F G H I J K L M N O P Q R S T U V W X Y Z # 

Boris The Spider Bass tabs (ver.3)

Who
Rating:
0/5 (0 votes)

Tabs too difficult? Try these video lessons and learn fast.
                The part where Roger Daltry sings ‘creepy crawly’ I called the Bridge.  

PARTS
Intro/Chorus
G-------------------------------------
D-0-----------------------------------
A----4--3--2--1----------------------
E-----------------1--3-3-3-3-3-3-3-3

Verse
G----33---00-------------------55---33----------------------
D-00---33-------------------------55---33--5-5-5-5-5-5-5-5
A------------3-3-3-3-3-3-3-3--------------------------------
E--------------------------------------------------------------

G-55---33-----------------------55---33---------------------
D---55---33-----------------------55---33--5-5-5-5-5-5-5-5
A-------------3-3-3-3-3-3-3-3-------------------------------
E--------------------------------------------------------------

Bridge
G---------------------
D---------------------
A---------------------
E-2h32h3h2h3h2h3etc

STRUCTURE
Intro x2
Verse x1
Chorus x2
Verse x1
Chorus x2
Bridge
Verse x1
Chorus x2
Bridge
Verse x1
Chorus x2
            
Tabs too difficult? Try these video lessons and learn fast.


comments powered by Disqus
↑ Back to top | Tablatures and chords are parodies/interpretations of the original songs. You may use it for private study, scholarship, research or language learning purposes only