» » »

Borise The Spider Bass tabs (ver.1)

Artists:  A B C D E F G H I J K L M N O P Q R S T U V W X Y Z # 

Borise The Spider Bass tabs (ver.1)

Who
Rating:
0/5 (0 votes)

Tabs too difficult? Try these video lessons and learn fast.
                thysquire

The who-borsie the spider

G|----------------------------
D|----------------------------
A|-5-4-3-2-1------------------
E|-----------1-3-3-3-3-3-3-3-3

G|---33---------------------
D|-----33--5----------------
A|55---------3-3-3-3-3-3-3-3
E|--------------------------

G|55----33--------------------55----33------------------
D|---55----3---------------------55----3-5-5-5-5-5-5-5-5
A|-----------3-3-3-3-3-3-3-3----------------------------
E|------------------------------------------------------

G|--------------
D|---------------
A|2h3h2h3h2 ect.
E|--------------
            
Tabs too difficult? Try these video lessons and learn fast.




comments powered by Disqus
↑ Back to top | Tablatures and chords are parodies/interpretations of the original songs. You may use it for private study, scholarship, research or language learning purposes only