>
 >
Transistor

Transistor Guitar Tabs

The Warriors - Transistor chords, tabs, tablatures, lyrics

Guitar lessons | Add/correct | Request | Top 50 tabs Artists:  A B C D E F G H I J K L M N O P Q R S T U V W X Y Z 0-9

Transistor Guitar Tabs – The Warriors

CD, Sheet music, Poster

Do you like Transistor? Share with your friends now
Tabs
intro/part one

. -palm muting
p -pull off
~ -vibrato
*~ -harmonic bend (pinch harmonic)


start at (0:13)


D------|------|------|---------------|
A------|------|------|---------------|
F------|------|------|---------------|
C------|------|------|---------------| 
G-0-0-0|-0-0-0|-0--0-|--1------------|
C-0-0-0|-0-0-0|-0--0-|--1------------|
 {. . .  . . .  .  .}

D------|------|------|---------------|
A------|------|------|---------------|
F------|------|------|---------------|
C------|------|------|---------------|
G-0-0-0|-0-0-0|-0--0-|--1--0---------|
C-0-0-0|-0-0-0|-0--0-|--1--0---------|
 {. . .  . . .  .  .}



(0:24)

D------|-----|------|-----|----------|
A------|-----|------|-----|----------|
F------|-----|------|-----|----------|
C------|-----|------|-----|----------|
G-0-0-0|-5p0-|-0-0-0|-3p0-|--0-0-----|
C-0-0-0|-5p0-|-0-0-0|-3p0-|--0-0-----|
 {. . .}      {. . .}       {. .}




part 2/chorus 

D------|------|------|---------------|
A------|------|------|---------------|
F------|------|------|---------------|
C------|------|------|---------------|
G-0-0-0|-0-0-0|-0--0-|--1------------|
C-0-0-0|-0-0-0|-0--0-|--1------------|
 {. . .  . . .  .  .}

           (1st guitar)              |  |          (2nd guitar)      
D------------------------------------|  |----------------------------------|
A------------------------------------|  |----------------------------------|
F------------------------------8~~---|  |--------------------8*~-----------|
C----5~----6~----7~----8~------------|->|--5---6---7---8-------------------|
G-0-----0-----0-----0-----0-0--------|  |0-5-0-6-0-7-0-8-0-0---------------|
C-0-----0-----0-----0-----0-0--------|  |0-5-0-6-0-7-0-8-0-0---------------|
  .     .    .      .     . .            .   .   .   .   . .


D------|------|------|---------------|
A------|------|------|---------------|
F------|------|------|---------------|
C------|------|------|---------------|
G-0-0-0|-0-0-0|-0--0-|--1------------|
C-0-0-0|-0-0-0|-0--0-|--1------------|
 {. . .  . . .  .  .}


           (1st guitar)              |  |          (2nd guitar)      
D------------------------------------|  |----------------------------------|
A------------------------------------|  |----------------------------------|
F------------------------------8~~---|  |--------------------8*~-----------|
C----5~----6~----7~----8~------------|->|--5---6---7---8-------------------|
G-0-----0-----0-----0-----0-0--------|  |0-5-0-6-0-7-0-8-0-0---------------|
C-0-----0-----0-----0-----0-0--------|  |0-5-0-6-0-7-0-8-0-0---------------|
  .     .    .      .     . .            .   .   .   .   . .

___________________________________________________________________________

D------|-----|-----------------------|
A------|-----|-----------------------|
F------|-----|-----------------------|
C------|-----|-----------------------|
G-0-0-0|0-0-0|-0-0-0-0---------------|
C-0-0-0|0-0-0|-0-0-0-0---------------|
 {. . . . . .  . . . .}


           (1st guitar)              |  |          (2nd guitar)      
D------------------------------------|  |----------------------------------|
A------------------------------------|  |----------------------------------|
F------------------------------8~~---|  |--------------------8*~-----------|
C----5~----6~----7~----8~------------|->|--5---6---7---8-------------------|
G-0-----0-----0-----0-----0-0--------|  |0-5-0-6-0-7-0-8-0-0---------------|
C-0-----0-----0-----0-----0-0--------|  |0-5-0-6-0-7-0-8-0-0---------------|
  .     .    .      .     . .            .   .   .   .   . .


repeat how many times))

__________________________


then..

(1st guitar)         (2nd guitar)
D------------|      |------------|
A------------|      |------------|
F------------|----->|------------|
C---7--------|      |----8-------|
G---7--X4----|      |----8--x4---|
C---7--------|      |----8-------|


_______________________________________________

soon...to figure out the rest.
enjoy.





Comments


Popular The Warriors tabs & chords
Destroying Cenodoxus Tabs
Safety Off An Introduction Tabs
Set The Stage Tabs
War Is Hell Tabs


Song lyrics



↑ Back to top | Tablatures and chords are parodies/interpretations of the original songs. You may use it for private study, scholarship, research or language learning purposes only
© 2014 AZChords.com Contact us | Privacy policy | DMCA | Add/correct tabs | Request tabs | Top 50 tabs