>
 >
Set The Stage

Set The Stage Guitar Tabs

The Warriors - Set The Stage chords, tabs, tablatures, lyrics

Guitar lessons | Add/correct | Request | Top 50 tabs Artists:  A B C D E F G H I J K L M N O P Q R S T U V W X Y Z 0-9

Set The Stage Guitar Tabs – The Warriors

CD, Sheet music, Poster

Do you like Set The Stage? Share with your friends now
Tabs
The Warriors
"Set the Stage"
War is Hell


Pretty accurate, it's a pretty simple song to work out.


Intro pt. II (after vocal intro) x3
E--------------------------------|
B--------------------------------|
G--------------------7--8-7-5----|
D--------------------7--8-7-5----|
A--0-6-0--0~--0-3-0--5--6-5-3----|
E--0-6-0--0~--0-3-0--------------|

End of Intro part 2, played once
E------------------------------------------|
B------------------------------------------|
G-3~---3~--3~-3/5~---5~--5~---5~---8-7-5---|
D-3~---3~--3~-3/5~---5~--5~---5~---8-7-5---|
A-1~---1~--1~-1/3~---3~--3~---3~---6-5-3---|
D------------------------------------------|

Harmony, played by 2nd guitar
E------------------------------------------|
B------------------------------------------|
G-9~---9~--9~-9/10~--10~--10~-10~--8-7-5---|
D-x----x---x--x/-----x----x---x----8-7-5---|
A-7~---7~--7~-7/8~---8~---8~--8~---6-5-3---|
D------------------------------------------|


Two-Step ("I live my life by choices...")
E--------------------------------|
B--------------------------------|
G------------------7--8-7-5-8\---|
D------------------7--8-7-5-8\---|
A------------------5--6-5-3-6\---|
E-0--0-0--0--0--0----------------|
  .  . .  .  .  .

E-------------------------------------------|
B-------------------------------------------|
G------------------8-7-5--------------------|
D------------------8-7-5--------------------|
A------------------6-5-3-5*-----------------|
E-0--0-0--1--1--0---------------------------|
  .  . .  .  .  .


Slow-Down ("No more remorse in sight..."), use same harmony as intro 2
E------------------------------------------------------------------|
B------------------------------------------------------------------|
G------------------8-7-5-3~---3~--3~-3/5~---5~---5~--5~--8-7-5-----|
D------------------8-7-5-3~---3~--3~-3/5~---5~---5~--5~--8-7-5-----|
A------------------6-5-3-1~---1~--1~-1/3~---3~---3~--3~--6-5-3-----|
D--0--0-0--0--0--0-------------------------------------------------|
   .  . .  .  .  .


Breakdown w/ Fills ("The sky...")
E------------------------------------------|
B------------------------------------------|
G-/7--7------------------------------------|
D-/7--7-----1~-----------------------------|
A-/5--5-----1~-----------------------------|
D-------0-0-1~-----------------------------|
        . .

Guitar II
E------------------------------------------|
B------------------------------------------|
G-/7--7-----3~-----------------------------|
D-/7--7-----x------------------------------|
A-/5--5-----1~-----------------------------|
D-------0-0--------------------------------|
        . .


Build-Up to Outro ("Start the trampling!")
E---------------------------|
B---------------------------|
G--------------------5--8---|
D-0~-----------------5--8---|
A-0~-----------------3--6---|
D-0~------------------------|

Outro / Closing Breakdown
E--------------------------------|
B--------------------------------|
G--------------------7--8-7-5----|
D--------------------7--8-7-5----|
A--0-6-0--0~--0-3-0--5--6-5-3----|
D--0-6-0--0~--0-3-0--------------|


Hope this is alright! It may be in a half-step lower or drop C, you guys can figure that shit out.





Comments


Popular The Warriors tabs & chords
Destroying Cenodoxus Tabs
Safety Off An Introduction Tabs
Transistor Tabs
War Is Hell Tabs


Song lyrics



↑ Back to top | Tablatures and chords are parodies/interpretations of the original songs. You may use it for private study, scholarship, research or language learning purposes only
© 2014 AZChords.com Contact us | Privacy policy | DMCA | Add/correct tabs | Request tabs | Top 50 tabs