>
 >
Destroying Cenodoxus

Destroying Cenodoxus Guitar Tabs

The Warriors - Destroying Cenodoxus chords, tabs, tablatures, lyrics

Guitar lessons | Add/correct | Request | Top 50 tabs Artists:  A B C D E F G H I J K L M N O P Q R S T U V W X Y Z 0-9

Destroying Cenodoxus Guitar Tabs – The Warriors

CD, Sheet music, Poster

Do you like Destroying Cenodoxus? Share with your friends now
Tabs
This was a hard tab to figure out enjoy and give me some feed back


h - hammer on
p - pull off
b - bend string up
r - release bend
/ - slide up    \ - slide down
v - vibrato (sometimes written as ~)
t - right hand tap
x - play 'note' with heavy damping


intro
D |------------------------------------------------------|
A |------------------------------------------------------|
F |------------------------------------------------------|
C |0-606-1-0--0-606-01-0-/0-606-01-0-0-0--0-606--010-----|
G |0-606-1-0--0-606-01-0-/0-606-01-0-0-0--0-606--010-----|
C |0-606-1-0--0-606-01-0-/0-606-01-0-0-0--0-606--010-----|

D |------------------------------------------------------|
A |------------------------------------------------------|
F |------------------------------------------------------|
C |------------------------------------------------------|x4
G |----5-3535--353-6-5658-686-10-------------------------|
C |0-3---------------------------8-----------------------|


D |------------------------------------------------------|
A |------------------------------------------------------|
F |------------------------------------------------------|
C |65-000-65-000-65-00-65-000-65-0000-65-----------------|
G |65-000-65-000-65-00-65-000-65-0000-65-----------------|
C |65-000-65-000-65-00-65-000-65-0000-65-----------------|


D |------------------------------------------------------|
A |------------------------------------------------------|
F |8-8-66-7-777777--8888--666-5-555555-------------------|
C |x-x-xx-x-xxxxxx--xxxx--xxx-x-xxxxxx-------------------|
G |6-6-44-5-555555--6666--444-7-777777-------------------|
C |------------------------------------------------------|


D |------------------------------------------------------|
A |------------------------------------------------------|
F |------------------------------------------------------|
C |------------------------------------------------------|x2
G |----5-3535--353-6-5658-686-10-------------------------|
C |0-3---------------------------8-----------------------|


D |------------------------------------------------------|
A |------------------------------------------------------|
F |------------------------------------------------------|
C |0~---0--606-010---0-606-010---------------------------|
G |0~---0--606-010---0-606-010---------------------------|
C |0~---0--606-010---0-606-010---------------------------|

D |------------------------------------------------------|
A |------------------------------------------------------|
F |------------------------------------------------------|
C |65-000-65-000-65-00-65-000-65-000-65------------------|x2
G |65-000-65-000-65-00-65-000-65-000-65------------------|
C |65-000-65-000-65-00-65-000-65-000-65------------------|

D |------------------------------------------------------|
A |------------------------------------------------------|
F |------------------------------------------------------|
C |------------------------------------------------------|x4
G |----5-3535--353-6-5658-686-10-------------------------|
C |0-3---------------------------8-----------------------|

D |---------------------|
A |---------------------|
F |---------------------|
C |1~-3-0-1-3-0---------|
G |1~-3-0-1-3-0---------|
C |1~-3-0-1-3-0---------|

D |------------------------------------------------------|
A |------------------------------------------------------|
F |------------------------------------------------------|
C |0-57-5757-5758-78710-8108-12-3------------------------|X4
G |0-35-3535-3536-565-8-6-86-10-1------------------------|
C |0-----------------------------------------------------|

D |---------------------------------------X-----X--------|
A |---------------------------------------X-----X--------|
F |---------------------------------------X-----X--------|
C |13-13-13-13/--13-13-13-14-14-14-14/-0-----0-----------|x4
G |13-13-13-13/--13-13-13-14-14-14-14/-0-----0-----------|
C |13-13-13-13/--13-13-13-14-14-14-14/-0-----0-----------|





Comments


Popular The Warriors tabs & chords
Safety Off An Introduction Tabs
Set The Stage Tabs
Transistor Tabs
War Is Hell Tabs


Song lyrics



↑ Back to top | Tablatures and chords are parodies/interpretations of the original songs. You may use it for private study, scholarship, research or language learning purposes only
© 2014 AZChords.com Contact us | Privacy policy | DMCA | Add/correct tabs | Request tabs | Top 50 tabs