» » »

The Wanted, Glad You Came Tabs (ver.1)

Artists:  A B C D E F G H I J K L M N O P Q R S T U V W X Y Z # 

Glad You Came Tabs (ver.1)

The Wanted Tabs
 Rating:
4.2/5 (5 votes)
Glad You Came lessons Tabs too difficult? Try these video lessons and learn fast
1
                The Wanted – Glad You Came

This version is based off my acoustic cover of the song which you can view at


Do subscribe, like and leave a comment on the video :)

Much love,
Kenneth


Riff
e|------------X-----------------------------X------------------|
B|----3----3--X-----5-------3--------0---0--X--0---------------|
G|----0----0--X-----0-------0--------0---0--X--0----2-----0----|
D|----0h2--2--X----------------------0---0--X--0---------------|  X2
A|----3-------X-3-------3-------3-----------X------------------|
E|------------X----------------------3------X--3-------3-------|


e|------------X-----------------------------X------------------|
B|----3----3--X-----5-------3--------0---0--X--0-------3-------|
G|----0----0--X-----0-------0--------0---0--X--0—-2h4-----0----|
D|----0h2--2--X----------------------0---0--X--0--0------------|
A|----3-------X-3-------3-------3-----------X------------------|
E|------------X----------------------3------X-----3------------|


e|------------X-----------------------------X------------------|
B|----3----3--X-----5-------3--------0---0--X--0---------------|
G|----0----0--X-----0-------0--------0---0--X--0--2-----0------|
D|----0h2--2--X----------------------0---0--X--0--0-----0------|
A|----3-------X-3-------3-------3-----------X------------------|
E|------------X----------------------3------X-----3--3---------|
                                                                
Chords Used:
Cadd9: X-3-2-0-3-3
G: 3-2-0-0-3-3
Em7: 0-2-2-0-3-3
D/F#: 2-0-0-2-3-3
Em7(2): 0-x-0-0-0-x
C: 8-X-10-9-8-X
Em7(3): X-7-9-7-8-7
Bm7: 7-x-7-7-7-X

Chorus:
Cadd9         G                   Em7
The sun goes down, the stars come out,
                   D/F#             Cadd9
And all that counts is here and now,
       G                                    Em7                  D/F#
My universe will never be the same, I'm glad you came.

(Riff)

Verse:
                Cadd9                                   Em7(2)
You cast a spell on me, spell on me
                                   Cadd9                        Em7(2)
You hit me like the sky fell on me, fell on me 
                                  Cadd9                         Em7(2)
And I decided you look well on me, well on me 
                                         Cadd9                  Em7(2)
So let's go somewhere no one else can see, you and me. 


Pre-Chorus:
                                C                        Em7(3)
Turn the lights out now,now I'll take you by the hand,
                         C                               Em7(3)
Hand you another drink,drink it if you can, 
    Bm7                   C                               Em7(3)
Can you spend a little time,time is slipping away, 
                        C                                 Em7(3)
Away from us so stay, stay with me, I can make, 
Make you glad you came. 

Chorus:
The sun goes down, the stars come out, 
And all that counts is here and now, 
My universe will never be the same, 
I'm glad you came, I'm glad you came. 

(Riff)

Verse:
You cast a spell on me, spell on me
You hit me like the sky fell on me, fell on me
And I decided you look well on me, well on me
So let's go somewhere no one else can see, you and me

Pre-Chorus:
Turn the lights out now,now I'll take you by the hand,
Hand you another drink,drink it if you can,
Can you spend a little time,time is slipping away,
Away from us so stay,stay with me,I can make,
Make you glad you came.

Chorus:
The sun goes down,the stars come out,
And all that counts is here and now,
My universe will never be the same
I'm glad you came,I'm glad you came.
I'm glad you came
So glad you came
I'm glad you came
I'm glad you came

The sun goes down,the stars come out,
And all that counts is here and now,
My universe will never be the same,
I'm glad you came,I'm glad you came.
            
Submit corrections

comments powered by Disqus
↑ Back to top | The Wanted Tabs for Glad You Came. Lyrics for acoustic guitar and electric guitar. 1 Tablatures and chords are parodies/interpretations of the original songs. You may use it for private study, scholarship, research or language learning purposes only