» » »

The View, Up The Junction Tabs (ver.1)

Artists:  A B C D E F G H I J K L M N O P Q R S T U V W X Y Z # 

Up The Junction Tabs (ver.1)

The View Tabs
Rating:
0/5 (0 votes)
Up The Junction lessons Tabs too difficult? Try these video lessons and learn fast
                up the junction tab and chords sounds fine when i play it
bu = bend up
intro:
[------------------------------------------------------------------------|
[-------------------------9-----9----------------------------------------|
[-------------9-11--9---9---11----11--9-----------------9--11--9----9----|
[------9--11---------11-------------------11------9---11----------11-----|
[------------------------------------------------------------------------|
[------------------------------------------------------------------------|

----------------------------------------]
----------------------------------------]
----------------------------------------]
---------11--9--11--9-------------------]
------------------------11---9---7------]
----------------------------------------]

chords are E , A , E ,( C#m (4th fret)) back to E , A , E , C#m.

the end tab after last verse: figure out the speed and stuff by listening to it ;)

[------------------------------------------------------------------------|
[-------------------------9-----9----------------------------------------|
[-------------9-11--9---9---11----11--9-----------------9--11--9---------|
[------9--11---------11-------------------11------9---11----------11-----|
[------------------------------------------------------------------------|
[------------------------------------------------------------------------|

-------------------------------------------------------------------------|
-----12---10---9---------------------------------------------------------|
------------------------9--11--9------9--11bu--11--11bu--11--------------|
-------------------9-11-----------11-------------------------------------|
-------------------------------------------------------------------------|
-------------------------------------------------------------------------|

-------------------------------------------------------------------------|
-------------------------------------------------------------------------|
------------9--11--9-----9-----------------------------------------------|
-----9--11-----------11---------11--9--11--9----------11--9--11--9-------|
----------------------------------------------11--9----------------------|
-------------------------------------------------------------------------|

-------------------------------------------------------------------------]
-------------------------------------------------------------------------]
-------------------------------------------------------------------------]
-----------11--9--11--9--------------------------------------------------]
---11--9-----------------11--9-----7-------------------------------------]
-------------------------------------------------------------------------]
            
Submit corrections

comments powered by Disqus
↑ Back to top | The View Tabs for Up The Junction. Lyrics for acoustic guitar and electric guitar. Tablatures and chords are parodies/interpretations of the original songs. You may use it for private study, scholarship, research or language learning purposes only