>
 >
Typical Time

Typical Time Guitar Tabs

The View - Typical Time chords, tabs, tablatures, lyrics

Guitar lessons | Add/correct | Request | Top 50 tabs Artists:  A B C D E F G H I J K L M N O P Q R S T U V W X Y Z 0-9

Typical Time Guitar Tabs – The View

CD, Sheet music, Poster

Do you like Typical Time? Share with your friends now
Tabs
Hey this is a funky track from the end of the album which no one has tabbed yet....hope this helps.
Any comments questions are welcome. 

INTRO

  G                        Em
E-------------------------|----------------------|
B-----3-----3-----3-----3-|----8-----8-----8-----|
G-----4-----4-----4-----4-|----9-----9-----9-----|
D--5-----------5----------|----------------------|
A--------5-----------5----|-7-----------7--------|
E-------------------------|-------7-----------7--|

   C           G            Am          D7
E-------------------------|-------------------------|
B-------------------------|----5-----5-----7-----7--|
G-----9-----9-----4-----4-|----5-----5-----5-----5--|
D-----10----10----5-----5-|----7-----7-----7-----7--|
A--------10----------5----|-------7-----5-----------|
E--8-----------3----------|-5-----------------5-----|

   G                        B7          Em
E-------------------------|-------------------------|
B-------------------------|----------------8-----8--|
G-----4-----4-----4-----4-|----8-----8-----9-----9--|
D-----5-----5-----5-----5-|----7-----7-----9-----9--|
A--------5----------------|-------9-----7-----------|
E--3-----------3-----3----|-7-----------------7-----|

  C           G             C7    D7    G     
E-------------------------|-------------------------|
B-------------------------|----5-----7-----3--------|
G-----9-----9-----4-----4-|----3-----5-----4--------|
D-----10----10----5-----5-|----5-----7-----5--------|
A--------10----------5----|-3-----5-----------------|
E--8-----------3----------|-------------3-----------|
                                               What A Typical.....
                                               (lyrics start)

VERSE

   G                        Em7
E-------------------------|-------------------------|
B-------------------------|----8-----8-----8-----8--|
G-----4-----4-----4-----4-|----7-----7-----7-----7--|
D-----5-----5-----5-----5-|-------------------------|
A--------5-----------5----|-7-----------7-----7-----|
E--3-----------3----------|-------7-----------------|

   C           G            Am          D7
E-------------------------|-------------------------|
B-------------------------|-----------------7-----8-|
G-----9-----9-----4-----4-|----5-----5---------5----|
D-----10----10----5-----5-|----7-----7--------------|
A--------10----------5----|-------7-----5-----------|
E--8-----------3----------|-5-----------------------|

   G                        B7          Em
E-------------------------|-------------------------|
B-------------------------|----------------8-----8--|
G-----4-----4-----4-----4-|----8-----8-----9-----9--|
D-----5-----5-----5-----5-|----7-----7-----9-----9--|
A--5-----------5----------|-------9-----7-----------|
E--------3-----------3----|-7-----------------7-----|


E-------------------------|-------------------------|
B-------------------------|----5-----7-----3--3-----|
G-----9-----9-----4-----4-|----3-----5-----4--4-----|
D-----10----10----5-----5-|----5-----7-----5--5-----|
A--------10----------5----|-3-----5-----------------|
E--8-----------3----------|-------------3-----------|

End





Comments


Popular The View tabs & chords
Skag Trendy 3 Bass Tabs
Ab We Need Treatment Chords
Best Friend Chords
Happy Chords
Wasted Little Djs 2 Chords
Wasteland Chords
Comin' Down Tabs
Face For The Radio Tabs
Bunker Ukulele
The Best Last Forever Ukulele


Song lyrics



↑ Back to top | Tablatures and chords are parodies/interpretations of the original songs. You may use it for private study, scholarship, research or language learning purposes only
© 2014 AZChords.com Contact us | Privacy policy | DMCA | Add/correct tabs | Request tabs | Top 50 tabs