» » »

The View, Superstar Tradesmen Tabs (ver.1)

Artists:  A B C D E F G H I J K L M N O P Q R S T U V W X Y Z # 

Superstar Tradesmen Tabs (ver.1)

The View Tabs
 Rating:
4/5 (4 votes)
Superstar Tradesmen lessons Tabs too difficult? Try these video lessons and learn fast
                
tuning standard

intro


e|-------------------------------------12-------------12---------------------|
B|----------------------------------------13-------13------13----------------|
G|------------------------------------------12--14------------14---x2--------|
D|---------------------------------------------------------------------------|
A|--1010101010101010-7-7-7-7-7-7-7-7-----------------------------------------|
E|---8-8-8-8-8-8-7-7-5-5-5-5-5-5-7-7-----------------------------------------|

e|--12----------12------------12--------------------------------------------|
B|----13-----------13---------13--------------------------------------------|
G|-------12-----------12------14--------------------------------------------|
D|--------------------------------------------------------------------------|
A|--------------------------------------------------------------------------|
E|--------------------------------------------------------------------------|

verse
lead guitar

e|-12-12-12-12-12-12-12-12--12-12-12-12-12-12-12-12--8-8-8-8-8-8-8-8---------|
B|-13-13-13-13-13-13-13-13--13-13-13-13-13-13-13-13--1010101010101010--------|
G|-12-12-12-12-12-12-12-12--14-14-14-14-14-14-14-14--1010101010101010--------|
D|---------------------------------------------------------------------------|
A|---------------------------------------------------------------------------|
E|---------------------------------------------------------------------------|

e|-12-12-12-12-12-12-12-12---------------------------------------------------|
B|-13-13-13-13-13-13-13-13---------------------------------------------------|
G|-12-12-12-12-12-12-12-12---------------------------------------------------|
D|---------------------------------------------------------------------------|
A|---------------------------------------------------------------------------|
E|---------------------------------------------------------------------------|

rhythm guitar

e|--------------------------------------------------------------------------|
B|--------------------------------------------------------------------------|
G|--------------------------------------------------------------------------|
D|--------------------------------------------------------------------------|
A|-1010101010 1010-7-7-7-7-7-7-7--3-3-3-3-3-3-10101010101010----------------|
E|-8-8-8-8-8--7-7--5-5-5-5-5-5-5--1-1-1-1-1-1--8-8-8-8-8-8-8----------------|

chorus

e|---12-----12-----------12----12----------8-----8---------12-----12---------|
B|-----13-----13--13-------13----13---------10----10---------13-----13--13---|
G|-12----12-----12----14-----14----14---10----10----10--12-----12-----12-----|
D|---------------------------------------------------------------------------|
A|---------------------------------------------------------------------------|
E|---------------------------------------------------------------------------|
            
Submit corrections

comments powered by Disqus
↑ Back to top | The View Tabs for Superstar Tradesmen. Lyrics for acoustic guitar and electric guitar. Tablatures and chords are parodies/interpretations of the original songs. You may use it for private study, scholarship, research or language learning purposes only