» » »

Skag Trendy Bass tabs (ver.2)

Artists:  A B C D E F G H I J K L M N O P Q R S T U V W X Y Z # 

Skag Trendy Bass tabs (ver.2)

The View
Rating:
0/5 (0 votes)

Hard to play? Try these video lessons and learn fast.
                Main Riff

G-----9-------------------------------|
D---------7-9-7-6-------7------9------|
A--7--------------7--------------9-7--|
E--------------------5----5/7---------|


Chorus

G-----4---2----------4----2------------------------------|
D-------------4---------------4----4--2-------4---2------|
A-2-------------2-----------------------4------------4---|
E-------------------------------2---------2--------------|

G-----4---2----------4----2-----------------------2--4--|
D-------------4---------------4----4--2-------4---------|
A-2-------------2-----------------------4---------------|
E-------------------------------2---------2-------------|

G-----4---2----------4----2---------------------------------------|
D-------------4---------------4------4-4----4-4---0-0-0-0---------|
A-2-------------2-----------------------------------------2-2-2-2-|
E-------------------------------2-2------2-2----------------------|


2nd verse


G-----------------------------------|
D-----------------------------------|
A-7-7-7-7-7-5-4-4-------------------|
E------------------5-5-5-5-7-5-4-0--|

Main riff again

then

chorus

G-----4---2----------4----2------------------------------|
D-------------4---------------4----4--2-------4---2------|
A-2-------------2-----------------------4------------4---|
E-------------------------------2---------2--------------|

G-----4---2----------4----2------------------------------------|
D-------------4---------------4----4--2------4-4-4-4-2---2-----|
A-2-------------2-----------------------4--------------4---4-0-|
E-------------------------------2---------2--------------------|

G-----4---2----------4----2---------------------------------------|
D-------------4---------------4------4-4----4-4---0-0-0-0---------|
A-2-------------2-----------------------------------------2-2-2-2-|
E-------------------------------2-2------2-2----------------------|


then same as 2nd verse again


end bit


G---------------------7-9-7-9~(bend)-7------9---|
D-------5---5-7-5-7-9---------------------------|
A--7-7----7-----------------------------7-------|
E-----------------------------------------------|
            
Hard to play? Try these video lessons and learn fast. | Correct




comments powered by Disqus
↑ Back to top | Tablatures and chords are parodies/interpretations of the original songs. You may use it for private study, scholarship, research or language learning purposes only