» » »

Shock Horror Bass tabs (ver.1)

Artists:  A B C D E F G H I J K L M N O P Q R S T U V W X Y Z # 

Shock Horror Bass tabs (ver.1)

The View
Rating:
4/5 (2 votes)

Hard to play? Try these video lessons and learn fast.
                -------------------------------------------------------------------------------
-------------------------------------------------------------------------------



Tuning:EADG

slide from the 2nd fret of E string

intro/Verse
G|----------------------------------------------------|
D|----------------------------------------------------|
A|-------11-12-12--19-19-19-19-19-19-19-19------------|
E|-12-12----------------------------------------------|

G|----------------------------------------------------|
D|----------------------------------------------------|
A|-----8-9-9--16-16-16-16-16-16-16-16-----------------|
E|-9-9------------------------------------------------|

G|----------------------------------------------------|
D|----------------------------------------------------|
A|----------------------------------------------------|
E|-12-12-12-12-12-12-12-12--9-9-9-9-9-9-9-9-----------|


Chorus
G|-----------------------------------------------------|
D|-----------------------------------------------------|
A|-------11-12-12--19-19-19-19-19-19-19-19-------------|
E|-12-12-----------------------------------------------|

G|-----------------------------------------------------|
D|-----------------------------------------------------|
A|-----1-2-2--9-9-9-9-9-9-9-9--------------------------|
E|-2-2-------------------------------------------------|

G|-----------------------------------------------------|
D|-----------------------------------------------------|
A|-----4-5-5--12-12-12-12-12-12-12-12------------------|
E|-5-5-------------------------------------------------|

G|-----------------------------------------------------|
D|-----------------------------------------------------|
A|-------11-12-12--19-19-19-19-19-19-19-19-------------|
E|-12-12-----------------------------------------------|

Bridge
slide up and down from 2nd fret on E string when playin this
G|------------------------------------------------------|
D|------------------------------------------------------|
A|------------------------------------------------------|
E|-12-12-12-12-----13-13-13-13-----5-5-5-5--------------|

G|-------------------------------------------------------------------|
D|-------------------------------------------------------------------|
A|-------------------------------------------------------------------|
E|-12-12-12-12---13-13-13-13---5-5--5-5-5-5-12-12-12-12-12-12-12-12--|
just listen to the song to get it right

outro
G|-----------------------------------------------------|
D|-----------------------------------------------------|
A|-------11-12-12--19-19-19-19-19-19-19-19-------------|
E|-12-12-----------------------------------------------|

G|-----------------------------------------------------|
D|-----------------------------------------------------|
A|-----1-2-2--9-9-9-9-9-9-9-9--------------------------|
E|-2-2-------------------------------------------------|

G|-----------------------------------------------------|
D|-----------------------------------------------------|
A|-----4-5-5--12-12-12-12-12-12-7-12-7-12-7-12-7-12----|
E|-5-5-------------------------------------------------|

G|-----------------------------------------------------|
D|-----------------------------------------------------|
A|-------11-12-12--19-19-19-19-19-19-19-19-------------|
E|-12-12-----------------------------------------------|

G|-----------------------------------------------------|
D|-----------------------------------------------------|
A|-19-19-19-19-19-19-19-19-9-9-9-9-9-9-9-9-------------|
E|-----------------------------------------------------|

G|-----------------------------------------------------|
D|-----------------------------------------------------|
A|-----4-5-5--12-12-12-12-12-12-12-12------------------|
E|-5-5-------------------------------------------------|


G|-----------------------------------------------------|
D|-----------------------------------------------------|
A|-7-7-7-7-7-7-7-7-----7-------------------------------|
E|------------------12---------------------------------|
Listen to the song to figure out when to play what but its all there!
| /  slide up
| \  slide down
| h  hammer-on
| p  pull-off
| ~  vibrato
| +  harmonic
| x  Mute note
===============================================================================
            
Hard to play? Try these video lessons and learn fast. | Correct




comments powered by Disqus
↑ Back to top | Tablatures and chords are parodies/interpretations of the original songs. You may use it for private study, scholarship, research or language learning purposes only