>
 >
Same Jeans 2

Same Jeans 2 Guitar Tabs

The View - Same Jeans 2 chords, tabs, tablatures, lyrics

Guitar lessons | Add/correct | Request | Top 50 tabs Artists:  A B C D E F G H I J K L M N O P Q R S T U V W X Y Z 0-9

Same Jeans 2 Guitar Tabs – The View

CD, Sheet music, Poster

Do you like Same Jeans 2? Share with your friends now
Bass TabsBass Tabs v2ChordsChords v2Chords v3TabsTabs v2Tabs v3Tabs v4Tabs v5UkuleleUkulele v2

      Q    E  S S Q    E  S S    E  E  E  E  E  E  E  S S  
E||---3----3----3-3----3--3-3-|--3--3--3--3--L-----3--3-3-|
B||---1----1--1-1-1----1--1-1-|--0--0--0--1--L-----1--1-1-|
G||*--0----0--0-0-2----2--0-0-|--0--0--0--0--L--0--0--0-0-|
D||*--2----2------3----3------|--0--0--0--2--L--2--2--2-2-|
A||---3-----------------------|--x--x-----3--L------------|
E||---------------------------|--3--3---------------------|


  Q    E  S S Q    E  S S    E  E  E  E  E  E  E  S S  3x
--3----3----3-3----3--3-3-|--3--3--3--3--L-----3--3-3--||
--1----1--1-1-1----1--1-1-|--0--0--0--1--L-----1--1-1--||
--0----0--0-0-2----2--0-0-|--0--0--0--0--L--0--0--0-0-*||
--2----2------3----3------|--0--0--0--2--L--2--2--2-2-*||
--3-----------------------|-----------3--L-------------||
--------------------------|--3--3----------------------||


  E  Q    E  E  E  S S S S      Q    Q      Q     Q      
--3--3----3--3--3--3-3-3-3-||---------------------------|
--0--0----1--1--1--1-1-1-1-||---5----5S----10----10S----|
--0--0----0--0--0--0-0-0-0-||*--5----5S----10----10S----|
--0--0----2--2--2--2-2-2-2-||*--5----5S----10----10S----|
---------------------------||---3----3S-----8-----8S----|
---------------------------||---------------------------|


                                                        >     
  Q    E  S S S S  E   E    E      Q    E  S S S S  E   Q     
--------------------------------|----------------------------|
--5----5----------10--10S--12S--|--5----5----------10--10----|
--5----5--x-x-x-x-10--10S--12S--|--5----5--x-x-x-x-10--10----|
--5----5--x-x-x-x-10--10S--12S--|--5----5--x-x-x-x-10--10----|
--3----3--x-x-x-x--8---8S--10S--|--3----3--x-x-x-x--8---8----|
--------------------------------|----------------------------|


   <                                    >               <               
   E   E   E   E   E   E   E   E        E   E   E   E   E   E   E   E   
-----------------------------------||-------------------7---7---7---7--|
-----------------------------------||---8---------------8---8---8---8--|
--12--12--12--12--12--12--11S--9--*||---7-------7---7---7---7---7---7--|
--12--12--12--12--12--12--11S--9--*||---9-------9---9---9---9---9---9--|
--10--10--10--10--10--10---9S--7---||--10--10--10--10--10--10--10--10--|
-----------------------------------||----------------------------------|


                   ^                                       
   E   E   E   E   Q    Q         Q    E  S S Q    E  S S  
---7---7---7---7---7---------||---3----3------3----3--3-3-|
---8---8---8---8---8---------||---1----1--1-1-1----1--1-1-|
---7---7---7---7---7---------||*--0----0--0-0-2----2------|
---9---9---9---9---9---------||*--2----2--0-0-3----3------|
--10--10--10--10--10---------||---3----3------------------|
-----------------------------||---------------------------|


  E  Q    E  E  E  E  E   3x   E   E   S   S S S E  E  E  E   
--3--3----0--L--0--0------||---------------------------------|
--0--0----1--L--1--1------||---------------------------------|
--0--0----0--L--0--0--0--*||-------9----------------5--------|
--0--0----2--L--2--2--0--*||------10--10-----8-8----7--7-----|
----------3--L--3--3------||--10-------8h-10-8-8-8-----8--8--|
--3--3--------------------||---8-----------------------------|


                  ^      >                                          
      E   E   E   E  E   Q     E     Q    E  S S S  S  E  S   S E   
-------------------------8--------|--------------------------------|
---------12--------------8--------|-------8--x------------------8--|
---------12--------------9--------|-------8--x-8-9p-8-----------8--|
--10g12--12--10--10-----10----10--|-------------------10--8h-10----|
---8g10--10---8--10-----------10--|--------------------------------|
------------------8---------------|--------------------------------|


   E   E  E   S S  H            E   E  E   S S  S S  E  E   E    
----------------------------|-----------------------------------|
----------8-----------------|----------8------------------------|
----------8-----8~-L--------|----------8-----8b-L-x-----8--10b--|
--10--10-----10-------------|--10--10-----10--------10----------|
----------------------------|-----------------------------------|
----------------------------|-----------------------------------|


  E  E   E     E   Q     Q         E    E  S   S E   E   E     E  E   
-------------------------------|-------------------------------------|
-----8--11--------11----11-----|--11---------------------------------|
--L-----10brb--L---L----10b----|--10br--L--8h-10-8~--L------8g10--8--|
-------------------------------|------------------------10-----------|
-------------------------------|-------------------------------------|
-------------------------------|-------------------------------------|


   E    E  S   S E   E   E  E  E      E    E  S   S S   S E   E  E   E    
----------------------------------|--------------------------------------|
----------------------------8-----|--------------------------------------|
--10br--L--8h-10-8~--L------8--8--|--10br--L--8h-10-8br-L-L------8--10b--|
------------------------10--------|--------------------------10----------|
----------------------------------|--------------------------------------|
----------------------------------|--------------------------------------|


  E  E  E  E  E  E  E  E         E   E    E    E    S    S E  Q     
--------------------------|----------------------------------------|
-----8--8--8--8--8--8--8--|--10g12--12~--12~--12~--12pbr-L-L-------|
--L-----------------------|----------------------------------------|
--------------------------|----------------------------------------|
--------------------------|----------------------------------------|
--------------------------|----------------------------------------|


  >           >                                                
  Q    E  S S Q    E  S S    E  E  E  E  H           H         
--0----x--x-x-1----x--x-x-|-----------0--L--------|--L--------|
--1----x--x-x-1----x--x-x-|--0--------1--L--------|--L--------|
--0----x--x-x-2----x--x-x-|--0--2--0--0--L--------|--L--------|
--2-----------3-----------|--0--3--0--2--L--------|--L--------|
--3-----------3-----------|--2--3--0--3--L--------|--L--------|
--------------1-----------|-----------------------|-----------|


    E  E  S S S S E  E  S S S S  3x  E  E  S S S S E  E  E  E   
|---3--3--3-3-3-3-3--3--3-3-3-3--||--3--3--3-3-3-3-------------|
|---1--1--1-1-1-1-1--1--1-1-1-1--||--1--1--1-1-1-1-1--x--x-----|
|*--0--0--0-0-0-0-2--2--2-2-2-0-*||--0--0--0-0-0-0-2--x--x--2--|
|*--2--2--2-2-2-0-3--3--3-------*||--2--2--2-2-2-2-3--x--x--0--|
|---3--3--3-3-3---0--0--0--------||--3--3--3-3-3-3-------------|
|--------------------------------||----------------------------|


    E  E  S S S S E  E  S S S S    E  E  S S S S E  E  S S S S  4x
|---3--3--3-3-3-3-1--1--1-1-1---|--3--3--3-3-3-3-1--1--1-1-1----||
|---1--1--1-1-1-1-1--1--1-1-1-1-|--1--1--1-1-1-1-1--1--1-1-1-1--||
|*--0--0--0-0-0-0-2--2--2-2-2-0-|--0--0--0-0-0-0-2--2--2-2-2-0-*||
|*--2--2--2-2-2-0-3--3--3-3-3-0-|--2--2--2-2-2-0-3--3--3-3-3-0-*||
|---3--3--3-3-3---0--0--0-0-0---|--3--3--3-3-3---0--0--0-0-0----||
|-------------------------------|-------------------------------||


   E   E   E    E    E    E    E    E    
----------------------------------------|
-------8---8----8----8----8----8----8---|
--10b-----10b--10b--10b--10b--10b--10b--|
----------------------------------------|
----------------------------------------|
----------------------------------------|


   E    E    E    E    E    E    E    E    
------------------------------------------|
---8----8----8----8----8----8----8----8---|
--10b--10b--10b--10b--10b--10b--10b--10b--|
------------------------------------------|
------------------------------------------|
------------------------------------------|


                                                            ^             
   S  S  E    E    E    E    E    E    E       E    E  E    E   H         
-------------------------------------------|-----------------------------|
---------8----8----8----8----8----8----8---|---8----L--8b----------------|
--10b-L-10b--10b--10b--10b--10b--10b--10b--|--10br--L--8b----------------|
-------------------------------------------|---------------10~--L--------|
-------------------------------------------|-----------------------------|
-------------------------------------------|-----------------------------|


-----------||
-----------||
-----------||
-----------||
-----------||
-----------||




Duration Legend
---------------
W - whole
H - half
Q - quarter
E - 8th
S - 16th
T - 32nd
X - 64th
. - note dotted
|-n-|  - n-tuplets


Tablature Legend
----------------
L - tied note
x - dead note
g - grace note
(n) - ghost note
> - accentuded note
NH - natural harmonic
AH - artificial harmonic
TH - tapped harmonic
SH - semi harmonic
PH - pitch harmonic
h - hammer on
p - pull off
b - bend
br - bendRelease
pb - preBend
pbr - preBendRelease
brb - bendReleaseBend
\n/ - tremolo bar dip
\n - tremolo bar dive
-/n - tremolo bar Release up
/n\ - tremolo bar inverted dip
/n - tremolo bar return
-\n - tremolo bar Release down
S - shift slide
s - legato slide
/ -  slide into from below or out of upwards
\ -  slide into from above or out of downwards
~ - vibrato
W - wide vibrato
tr - trill
TP - tremolo picking
T - tapping
S - slap
P - pop
< - fade in
^ - brush up
v - brush down





Comments


Popular The View tabs & chords
Skag Trendy 3 Bass Tabs
Claudia Chords
Ive Just Seen A Face Chords
Superstar Tradesman Chords
5 Rebbeccas 2 Tabs
Beautiful Tabs
Superstar Tradesmen Tabs
Dont Tell Me Ukulele
Mr Men Book Ukulele
Standing Waiting On My Own Ukulele


Song lyrics



↑ Back to top | Tablatures and chords are parodies/interpretations of the original songs. You may use it for private study, scholarship, research or language learning purposes only
© 2014 AZChords.com Contact us | Privacy policy | DMCA | Add/correct tabs | Request tabs | Top 50 tabs