» » »

The View, Give Back The Sun Tabs (ver.1)

Artists:  A B C D E F G H I J K L M N O P Q R S T U V W X Y Z # 

Give Back The Sun Tabs (ver.1)

The View Tabs
Rating:
0/5 (0 votes)
Hard to play? Try these video lessons and learn fast.
                (Intro)
                     The View - Give Back the Sun

this is the awesome intro/solo at the very start. distortion is needed and regular tuning. 



|--------------------------------------------|
|--------------------------5---5--6-/8--6----|
|----5-5-5-5~5~5~5~5~5-4-5---5------------5~-|
|--------------------------------------------|
|--------------------------------------------|
|--------------------------------------------|

|---------------------------------------|
|---------------------------------4-----|
|----5p3--5p3-------------3---3-5---5~--|
|--------5---5-\1-1-1h3-5---5-----------|
|---------------------------------------|
|---------------------------------------|

|------------------------------15^--|     
|---------------13h15p13-12-13------|
|--5-5-5/8--------------------------|
|-----------------------------------|
|-----------------------------------|
|-----------------------------------|

|-------------------------------------------------|
|-------------------------------------------------|
|--5-4-5-5/8---5-4-5--------5-----5-----5-----5---|
|--------------------6-5-----5-----5-----5-----5--|
|-------------------------------------------------|
|-------------------------------------------------|
            

comments powered by Disqus
↑ Back to top | The View Tabs for Give Back The Sun. Lyrics for acoustic guitar and electric guitar. Tablatures and chords are parodies/interpretations of the original songs. You may use it for private study, scholarship, research or language learning purposes only