>
 >
Fireworks Flowers

Fireworks Flowers Guitar Tabs

The View - Fireworks Flowers chords, tabs, tablatures, lyrics

Guitar lessons | Add/correct | Request | Top 50 tabs Artists:  A B C D E F G H I J K L M N O P Q R S T U V W X Y Z 0-9

Fireworks Flowers Guitar Tabs – The View

CD, Sheet music, Poster

Do you like Fireworks Flowers? Share with your friends now
Tabs



Intro : ( Off-Beat Strumming Throughout)  A x4  Ex4  Cx4  Dx3

Verse:
A                        E
Fireworks and flowers, which one would you choose ? 

C                                        D
'Cause I'll go and get them for you cause I love you.

A                         E
If you like the flowers, I'll send them in the post. 

C                                             D
If you'd like to light some fires, I'll find a beach by the coast.

A                           E
Lovely lovely lovely what your face says to me..

C                                      D
It makes my life all sunny, It's Like a Holiday !



Chorus: ( Play Barre Chords)
A                     E
And I will remember, the 5th of November ;

C                 
We danced all round old London town, 

D
Acting like clowns

A                           E
Lovely Lovely Lovely  what your face says to me 

C                               D
Makes me feel sunny, like a holidaaaaaayy



Verse:
A                              E                        
Was out on the lash when the question was asked, 

C                                         D
We danced down the street, have a bash , it's no task;


GO ! 


Chorus:
A                  E
Yes I Remember, The fifth of November, 

C
We danced all round old London town , 

D
We Were Clowns ! 

A                                E    
Lovely Lovely Lovely , What your face says to me, 

C                                     D
Makes Me Feel All Sunny , It's Like a HolidaaaaaaaAAAYY !!





*Solo- Kyle Improvises Between These Key Parts Below*

e|---------------------------------------------------------------------------|
B|--7--10--7--10-10bu12r10---7-----------------------------------------------|
G|------------------------------7-9bu10-7----------7-------------------------|
D|-----------------------------------------7-7--9----------------------------|
A|---------------------------------------------------------------------------|
E|---------------------------------------------------------------------------|



e|-9-9-9-9----9--12-9-10-9----------12---------------------------------------|
B|---------10----------------12bu14----14r12--10--12bu14r12---10-------------|
G|---------------------------------------------------------------11----------|
D|---------------------------------------------------------------------------|
A|---------------------------------------------------------------------------|
E|---------------------------------------------------------------------------|



e|----------------------19bu20---19bu20--17--19bu20---17------------17-------|
B|------------10-----------------------------------------19---17h19----------|
G|-11--9s11------------------------------------------------------------------|
D|---------------------------------------------------------------------------|
A|---------------------------------------------------------------------------|
E|---------------------------------------------------------------------------|

e|--------19--------19bu20-19bu20--19bu20------------------------------------|
B|-17h19-----17h19-----------------------------------------------------------|
G|---------------------------------------------------------------------------|
D|---------------------------------------------------------------------------|
A|---------------------------------------------------------------------------|
E|---------------------------------------------------------------------------|



Verse:
A                       E
Fireworks and flowers, which one would you choose ? 

C                                  D
Should I get both and then that way you cant lose.

A                        E
Fireworks and Flowers , We can take any part

C                  C                  C
Stay Up and chat , stay up and chat , stay up and chat 

D     D  D  C
Till after dark.





Comments


Popular The View tabs & chords
Shock Horror Bass Tabs
Skag Trendy 3 Bass Tabs
Glass Smash Chords
Happy Chords
Life Chords
Superstar Tradesman Chords
5 Rebbeccas Tabs
Don Intro Tabs
Double Yellow Lines Tabs
Shock Horror Tabs


Song lyrics



↑ Back to top | Tablatures and chords are parodies/interpretations of the original songs. You may use it for private study, scholarship, research or language learning purposes only
© 2014 AZChords.com Contact us | Privacy policy | DMCA | Add/correct tabs | Request tabs | Top 50 tabs