» » »

The View, Dance Into The Night Bass tabs (ver.1)

Artists:  A B C D E F G H I J K L M N O P Q R S T U V W X Y Z # 

Dance Into The Night Bass tabs (ver.1)

The View Tabs
 Rating:
4/5 (7 votes)
Dance Into The Night lessons Tabs too difficult? Try these video lessons and learn fast
                G|------------------------------------|
D|---2-5-2---------3-7-3-5-5-3-2-0----|
A|-3-------0-0-0h5--------------------|
E|------------------------------------|  X4

G|------------------------------------|
D|------------------------------------|
A|-4—457-7-9999-1112-99---------------|
E|------------------------------------|  X2

G|------------------------------------|
D|---2-5-2---------3-7-3-5-5-3-2-0----|
A|-3-------0-0-0h5--------------------|
E|------------------------------------|  X5

G|------------------------------------|
D|------------------------------------|
A|-4—457-7-9999-1112-99---------------|
E|------------------------------------|  X2

G|------------------------------------|
D|---2-5-2---------3-7-3-5-5-3-2-0----|
A|-3-------0-0-0h5--------------------|
E|------------------------------------|  X11

G|------------------------------------|
D|------------------------------------|
A|-4—457-7-9999-1112-99---------------|
E|------------------------------------|  X2

G|------------------------------------|
D|---2-5-2---------3-7-3-5-5-3-2-0----|
A|-3-------0-0-0h5--------------------|
E|------------------------------------|  X5

End
G|-------------------|
D|---2-5-2-----------|
A|-3-------0-0-------|
E|-------------------|  
            
Submit corrections

comments powered by Disqus
↑ Back to top | The View Bass for Dance Into The Night. Lyrics for acoustic guitar and electric guitar. Tablatures and chords are parodies/interpretations of the original songs. You may use it for private study, scholarship, research or language learning purposes only