» » »

Comin' Down Tabs (ver.1)

Artists:  A B C D E F G H I J K L M N O P Q R S T U V W X Y Z # 

Comin' Down Tabs (ver.1)

The View
Rating:
0/5 (0 votes)

Hard to play? Try these video lessons and learn fast.
                The View
Hats Off To The Buskers

Intro
-----

E [-----------------------------------------------------------------------|
B [-----------------------------------------------------------------------|
G [-----------------------------------------------------------------------|
D [------------------------------------------------------------------x2---|
A [-----------------------------------------------------------------------|
E [-0-12-12-0-12-0-12-0-12-17-0-12-12-0-12-0-12-0-12-15-0-12-12-0-12------|

Wa!

E [--------------------------------------------------------------------|
B [--------------------------------------------------------------------|
G [--------------------------------------------------------------------|
D [--------------------------------------------------------------------|
A [--------------------------------------------------------------------|
E [-0-12-12-0-12-0-12-0-12-17-0-12-12-0-12-0-12-0-12-15-0-12-12-0-12---|

Verse
------
I'm comin' Comin' down It took so long for me to come around

E [--x------x-------x-------------------------------------------------|
B [--x------x-------x------13-----------------------------------------|
G [--x--13--x-13-13-x-13---14-----------------------------------------|
D [--x--14--x-14-14-x-14---14-------x4--------------------------------|
A [--x--14--x-14-14-x-14---12-----------------------------------------|
E [--x--12--x-12-12-x-12---12-----------------------------------------|

They tell you, it smashes brain
Drain you of all the blood you've left in your veins.

E [--x------x-------x----------------------------------------|
B [--x------x-------x----------------------------------------|
G [--x--13--x-13-13-x-13---13-13-13-13-13--------------------|
D [--x--14--x-14-14-x-14---14-14-14-14-14--------------------|
A [--x--14--x-14-14-x-14---12-12-12-12-12--------------------|
E [--x--12--x-12-12-x-12---12-12-12-12-12--------------------|

Chorus
--------


If you spare me a brew and a double bed,
You might give me the time to clear my head tonight

E [----------------------------------------------------------------|
B [----------------------------------------------------------------|
G [-4-4-4-4-4-4-4-4-3-3-3-3-3-3-3-3-3-2-2-2-2-2-2-2-2--------------|
D [-5-5-5-5-5-5-5-5-4-4-4-4-4-4-4-4-4-3-3-3-3-3-3-3-3--------------|
A [-5-5-5-5-5-5-5-5-4-4-4-4-4-4-4-4-4-3-3-3-3-3-3-3-3--------------|
E [-3-3-3-3-3-3-3-3-2-2-2-2-2-2-2-2-2-1-1-1-1-1-1-1-1--------------|

E [--x------x-------x-------------------------------------------|
B [--x------x-------x------13-----------------------------------|
G [--x--13--x-13-13-x-13---14-----------------------------------|
D [--x--14--x-14-14-x-14---14-----------------------------------|
A [--x--14--x-14-14-x-14---12-----------------------------------|
E [--x--12--x-12-12-x-12---12-----------------------------------|

With these stones you cast so fast,
Makes me think that we will never last.
E [----------------------------------------------------------------|
B [----------------------------------------------------------------|
G [-4-4-4-4-4-4-4-4-3-3-3-3-3-3-3-3-3-2-2-2-2-2-2-2-2--------------|
D [-5-5-5-5-5-5-5-5-4-4-4-4-4-4-4-4-4-3-3-3-3-3-3-3-3--------------|
A [-5-5-5-5-5-5-5-5-4-4-4-4-4-4-4-4-4-3-3-3-3-3-3-3-3--------------|
E [-3-3-3-3-3-3-3-3-2-2-2-2-2-2-2-2-2-1-1-1-1-1-1-1-1--------------|

E [--x------x-------x---------------------------------------------|
B [--x------x-------x------13-------------------------------------|
G [--x--13--x-13-13-x-13---14-------------------------------------|
D [--x--14--x-14-14-x-14---14-------------------------------------|
A [--x--14--x-14-14-x-14---12-------------------------------------|
E [--x--12--x-12-12-x-12---12-------------------------------------|

Verse Again
-------------

Chorus 2

If you spare me a brew and a double bed,
You might give me the time to clear my head tonight

E [----------------------------------------------------------------|
B [----------------------------------------------------------------|
G [-4-4-4-4-4-4-4-4-3-3-3-3-3-3-3-3-3-2-2-2-2-2-2-2-2--------------|
D [-5-5-5-5-5-5-5-5-4-4-4-4-4-4-4-4-4-3-3-3-3-3-3-3-3--------------|
A [-5-5-5-5-5-5-5-5-4-4-4-4-4-4-4-4-4-3-3-3-3-3-3-3-3--------------|
E [-3-3-3-3-3-3-3-3-2-2-2-2-2-2-2-2-2-1-1-1-1-1-1-1-1--------------|

E [--x------x-------x-------------------------------------------|
B [--x------x-------x------13-----------------------------------|
G [--x--13--x-13-13-x-13---14-----------------------------------|
D [--x--14--x-14-14-x-14---14-----------------------------------|
A [--x--14--x-14-14-x-14---12-----------------------------------|
E [--x--12--x-12-12-x-12---12-----------------------------------|

With these stones you cast so fast,
Makes me think that we will never last.

E [------------------------------------------------------------|
B [------------------------------------------------------------|
G [-4-4-4-4-4-4-4-4--6-6-6-6-6-6-6-6--8-8-8-8-8-8-8------------|
D [-5-5-5-5-5-5-5-5--7-7-7-7-7-7-7-7--9-9-9-9-9-9-9------------|
A [-5-5-5-5-5-5-5-5--7-7-7-7-7-7-7-7--9-9-9-9-9-9-9------------|
E [-3-3-3-3-3-3-3-3--5-5-5-5-5-5-5-5--7-7-7-7-7-7-7------------|

DOO DOO DOO DOO DOO DOO DOO

E [------------------------------------------------------------------------|
B [------------------------------------------------------------------------|
G [-------------------------------------------------13/--------------------|
D [-------------------------------------------------14/--------------------|
A [-------------------------------------------------14/--------------------|
E [---12-12-12-12-12-10-11-12-12-12-12-12-10-11-----12/--------------------|

Solo
------

Just play intro over solo sorry i dont know the tab of it

Chorus 3
----------

If you spare me a brew and a double bed,
You might give me the time to clear my head tonight

E [----------------------------------------------------------------|
B [----------------------------------------------------------------|
G [-4-4-4-4-4-4-4-4-3-3-3-3-3-3-3-3-3-2-2-2-2-2-2-2-2--------------|
D [-5-5-5-5-5-5-5-5-4-4-4-4-4-4-4-4-4-3-3-3-3-3-3-3-3--------------|
A [-5-5-5-5-5-5-5-5-4-4-4-4-4-4-4-4-4-3-3-3-3-3-3-3-3--------------|
E [-3-3-3-3-3-3-3-3-2-2-2-2-2-2-2-2-2-1-1-1-1-1-1-1-1--------------|

E [--x------x-------x-------------------------------------------|
B [--x------x-------x------13-----------------------------------|
G [--x--13--x-13-13-x-13---14-----------------------------------|
D [--x--14--x-14-14-x-14---14-----------------------------------|
A [--x--14--x-14-14-x-14---12-----------------------------------|
E [--x--12--x-12-12-x-12---12-----------------------------------|

With these stones you cast so fast,
Makes me think that we will never last.

E [------------------------------------------------------------|
B [------------------------------------------------------------|
G [-4-4-4-4-4-4-4-4--6-6-6-6-6-6-6-6--8-8-8-8-8-8-8------------|
D [-5-5-5-5-5-5-5-5--7-7-7-7-7-7-7-7--9-9-9-9-9-9-9------------|
A [-5-5-5-5-5-5-5-5--7-7-7-7-7-7-7-7--9-9-9-9-9-9-9------------|
E [-3-3-3-3-3-3-3-3--5-5-5-5-5-5-5-5--7-7-7-7-7-7-7------------|

Outro

Play E same as verse and intro alternating

Comin' Dowowowowowowowow

E [----------------------------------------------------------------|
B [----------------------------------------------------------------|
G [-4-4-4-4-4-4-4-4-3-3-3-3-3-3-3-3-3-2-2-2-2-2-2-2-2--------------|
D [-5-5-5-5-5-5-5-5-4-4-4-4-4-4-4-4-4-3-3-3-3-3-3-3-3--------------|
A [-5-5-5-5-5-5-5-5-4-4-4-4-4-4-4-4-4-3-3-3-3-3-3-3-3--------------|
E [-3-3-3-3-3-3-3-3-2-2-2-2-2-2-2-2-2-1-1-1-1-1-1-1-1--------------|


If you spare me a brew and a double bed,
You might give me the time to clear my head tonight

E [----------------------------------------------------------------|
B [----------------------------------------------------------------|
G [-4-4-4-4-4-4-4-4-3-3-3-3-3-3-3-3-3-2-2-2-2-2-2-2-2--------------|
D [-5-5-5-5-5-5-5-5-4-4-4-4-4-4-4-4-4-3-3-3-3-3-3-3-3--------------|
A [-5-5-5-5-5-5-5-5-4-4-4-4-4-4-4-4-4-3-3-3-3-3-3-3-3--------------|
E [-3-3-3-3-3-3-3-3-2-2-2-2-2-2-2-2-2-1-1-1-1-1-1-1-1--------------|


Last Chord

E------|
B------|
G-13---|
D-14---|
A-14---|
E-12---|
            
Hard to play? Try these video lessons and learn fast. | Correct




comments powered by Disqus
↑ Back to top | Tablatures and chords are parodies/interpretations of the original songs. You may use it for private study, scholarship, research or language learning purposes only