» » »

Shade Tabs (ver.1)

Artists:  A B C D E F G H I J K L M N O P Q R S T U V W X Y Z # 

Shade Tabs (ver.1)

The Tossers
Rating:
5/5 (2 votes)

Tabs too difficult? Try these video lessons and learn fast.
                Shade by the Tossers, off of the Agony Album

The first part of the song is a mandolin, but you can play it high on the neck like this:

e|--13---12-10---12-13---12-10---------------10------------------------------|
B|------------------------------13---12-13-------13-12-10--12-12/13--12-13---|
G|---------------------------------------------------------------------------|
D|---------------------------------------------------------------------------|
A|---------------------------------------------------------------------------|
E|---------------------------------------------------------------------------|

e|--13---12-10-12-13-12--10-------------12--10-------------------------------|
B|---------------------------13-12-13-----------13----10--10-12-12/13-12--13-|
G|--------------------------------------------------9------------------------|
D|---------------------------------------------------------------------------|
A|---------------------------------------------------------------------------|
E|---------------------------------------------------------------------------|


e|---12--10--------------------------------0-------|
B|--------------13----10~~~~~~~~~~~--------1—------|
G|------------------9----------------------2-------|
D|-----------------------------------------2-------|
A|-----------------------------------------0-------|
E|-----------------------------------------x-------|

    F				Am
The thunder cracks at the hills and plains,
      G				Am
The rain does lash at your window pane.
       F 			    Am
I am the ghost of your past refrain,
         G   		    Am
I’m your conscience, let me in, let me in,
         G                  Am
I’m your conscience, let me in.


    F				Am
You cannot bear to go on this way,
      G
You’ve passed many trials,
               Am
But still you sway,
       F 			    Am
You know that something has to change,
         G   		    Am
And it’s weak to sit in blame, let me in.
         G   		    Am
Oh it’s weak to sit in blame.


    F				Am
No, you cannot bear to go on this way,
      G
You’ve passed many trials,
               Am
But still you sway,
       F 			    Am
You know that something has to change,
         G   		    Am
Or like me soon you’ll be a ghost, let me in,
         G   		    Am
Or soon you’ll be a shade.


The guitar in the song strums each chord once or twice every time, but you can strum it 
all the way through, which I think sound pretty nice.
            
Tabs too difficult? Try these video lessons and learn fast.


comments powered by Disqus
↑ Back to top | Tablatures and chords are parodies/interpretations of the original songs. You may use it for private study, scholarship, research or language learning purposes only