» » »

The Tossers, Altercations Bass tabs (ver.1)

Artists:  A B C D E F G H I J K L M N O P Q R S T U V W X Y Z # 

Altercations Bass tabs (ver.1)

The Tossers Tabs
Rating:
0/5 (0 votes)
Altercations lessons Tabs too difficult? Try these video lessons and learn fast
                Band: The Tossers
h= hammer on     ()=let ring  15=fifteen. not one, five and so on
The Tossers could be called the chicago version of the pogues. they play traditional 
music at break-neck speed and add a punk twist to it.

ntro:
G:------------------------------------------------|
D:-3----------5-------------------5-3h5-3-2-------|
A:------------------------(3)---------------------|
E:------------------------------------------------|

Pre Verse:
G:-------------------------------------------------------------------------------|
D:---2-3-4-5-3-2-----------5-7-------------------2-3-4-5-3h5-3-2---3-2-----------|
A:-3----------------3-5-7-8------8-5---2-3-4-5------------------------5-----5-3--|
E:----------------------------------------3--------------------------------------|

Verse Part 1:
G:---------------------------------------------------------------------------------------|
D:---------------------------------------------------------------------------------------|
A:-3-3-----3-3-----2-3-5-5------5-5-----2-0------5-5-----5-5-0-2-3-3------3-3------------|
E:------3-3-----3-3-----------5-5-----5-5------3-3------3-3----------------3-3------3-3--|

Verse Part 2:
G:-------------------------------------------------------------------------------|
D:---2-3-4-5-3-2-----------5-7-------------------2-3-4-5-3h5-3-2---3-2-----------|
A:-3----------------3-5-7-8------8-5---2-3-4-5------------------------5-----5-3--|
E:----------------------------------------3--------------------------------------|

Chorus:
G:--------------------------|
D:--------------------------|
A:-3-------5-5-------3-3----|
E:---------------(3)--------|

Post Chorus 1:
G:-12-10-----10-----------------------------------17------------------------------------|
D:----------12----12-11-10---------14-15-17----17----12-15-14-13-12---------------------|
A:-------------------------------12--15---------------------12--------------------------|
E:--------------------------------------------------------------------------------------|

G:---------12-----12-10----10-------------------------|
D:-----12-----12---------12----12-11-10---------------|
A:-10-------------------------------------------12----|
E:----------------------------------------------------|

Post Chorus 2:
G:-12-10-----10-----------------------------------17------------------------------------|
D:----------12----12-11-10---------14-15-17----17----12-15-14-13-12---------------------|
A:-------------------------------12--15---------------------12--------------------------|
E:--------------------------------------------------------------------------------------|

G:--------12----12-----10-9-----------|
D:----12----12-----12-------10--------|
A:-10---------------------------------|
E:------------------------------------|

Song Order:
Intro x1
Pre Verse x2
Verse Part 1 x2
Verse Part 2 x4
Chorus x2
Post Chorus 1 x2
Verse Part 2 x8
Chorus x2
Post Chorus 2 x8
            
Submit corrections

comments powered by Disqus
↑ Back to top | The Tossers Bass for Altercations. Lyrics for acoustic guitar and electric guitar. Tablatures and chords are parodies/interpretations of the original songs. You may use it for private study, scholarship, research or language learning purposes only