» » »

These Living Arms Tabs (ver.1)

Artists:  A B C D E F G H I J K L M N O P Q R S T U V W X Y Z # 

These Living Arms Tabs (ver.1)

Tea Party
Rating:
0/5 (0 votes)

Hard to play? Try these video lessons and learn fast.
                This is a rather cool song, so here is a rather cool tab for it :P.
If you want to use this tab for your own site or whatever, just
might just let you use it.  Either way, rock on peoples.



INTRO: - Slight distortion.
------

D|-----------------------------------|
A|--/2~~-/4~~-/5~~--4\--9\4~~~-5\2~~-|
G|-----------------------------------|
D|-----------------------------------|
A|-----------------------------------|
D|-----------------------------------|



VERSE/MAIN RIFF:
----------------
                                tr~~~~            tr~~~~
D|-------------------------------------------------------|
A|---------------------4h5p4h5--4-(5)----4h5p4h5--4-(5)--|
G|-------------------------------------------------------|
D|-------------------------------------------------------|
A|-------------------------------------------------------|
D|-------------------------------------------------------|
So a crowd has gathered round us...

            tr~~~~
D|------------------------------------------------------------------|
A|-4h5p4h5--4~(5)----/4~~-4h5-4h5p4\0~-/2~~~---/4~~-4h5-4h5p4\0~-/2~|
G|------------------------------------------------------------------|
D|------------------------------------------------------------------|
A|------------------------------------------------------------------|
D|------------------------------------------------------------------|
                          Patience my love...      patience my love.



INTERLUDE:
----------

D|------------------------------|
A|--/2~~--/4~-/5~~--4/--9\4~~~--|
G|------------------------------|
D|------------------------------|
A|------------------------------|
D|--(0)~~~~~~~------------------|



2ND VERSE: - Main riff.
----------


CHORUS:
-------

D|--0~~----------0~~----------0~~----------0~~-------------0~------|
A|--0~~------xx--0~~------xx--0~~----------0~~-------------0~------|
G|--0~~------xx--0~~------xx--0~~------xx--0~~--0~-----xx--0~------|
D|--9~~------xx--7~~------xx--5~~------xx--0~~--0~-----xx--0~--0~--|
A|--x~~------x---x~~----------x~~------xx--0~~--0~-----xx--0~--0~--|
D|--9~~----------7~~----------5~~----------0~~--0~---------0~--0~--|
With your arms around me ...



3RD VERSE: - Main riff.
----------



CHORUS: - Same as above.
-------



BRIDGE:
-------

D|---------------0-----------------|
A|-----0-0-------0--0-0--------0---|
G|--0--0-0--0--0-0--0-0------0-0---| PLAY
D|--0--0-0--0--0-0--0-0--0-0-0-0---|  x2
A|--0----0--0--0------0--0-0-0-0---|
D|--0-----------------0--0-0-0-0---|

*Use the same rhythm as above for the A and G chords
D|--0--------0---------------------------|
A|--0--------0---------0---------0-------|
G|--0--------0------xx-0------xx-0-------|
D|--7--------5------xx-0--0---xx-0---0---|
A|--7--------5------x--0--0---xx-0---0---|
D|--7--------5---------0--0------0---0---|



CHORUS: - Fill played over the chorus chords shown above.
-------

D|--14~--12-11~~-12~--14~--12-11~~(11)\9~--5/7\5~~-|
A|-------------------------------------------------|
G|-------------------------------------------------|
D|-------------------------------------------------|
A|-------------------------------------------------|
D|-------------------------------------------------|

D|---12~-11-9\11~-9\7~-5~~(5)\4/7--|
A|---------------------------------|
G|---------------------------------|
D|---------------------------------|
A|---------------------------------|
D|---------------------------------|



SOLO:
-----

D|---7\5-/9--9\7-/11~-/12-/14--16~~~-17-16--|
A|------------------------------------------|
G|------------------------------------------|
D|------------------------------------------|
A|------------------------------------------|
D|------------------------------------------|

D|--17b(19)-(19)-(19)--17b(19)-(19)r17p16-|
A|----------------------------------------|
G|----------------------------------------|
D|----------------------------------------|
A|----------------------------------------|
D|----------------------------------------|

D|--16~~~--14~~~---14b(16)-14b(16)r14-12~~~--9~(9)-12\9-12\9-/14-|
A|---------------------------------------------------------------|
G|---------------------------------------------------------------|
D|---------------------------------------------------------------|
A|---------------------------------------------------------------|
D|---------------------------------------------------------------|

D|-9~(9)-12\9-12\9-/14~~--\12~~~~~--14~~~--12~~~~--|
A|-------------------------------------------------|
G|-------------------------------------------------|
D|-------------------------------------------------|
A|-------------------------------------------------|
D|-------------------------------------------------|



OUTRO:
------

D|-----------0------0~~-------------0------0~~---|
A|-----------0-0----0~~-------------0-0----0~~---|
G|--x-x-x-x--0---0--0~~----x-x-x-x--0---0--0~~---| REPEAT
D|--x-x-x-x--0---0--0~~----x-x-x-x--0---0--0~~---|
A|--x-x-x-x--0------0~~----x-x-x-x--0---0--0~~---|
D|-----------0------0~~-------------0------0~~---|
Sweet lover gone on...



---------------------------------------------
---------------------------------------------
            
Hard to play? Try these video lessons and learn fast. | Correct




comments powered by Disqus
↑ Back to top | Tablatures and chords are parodies/interpretations of the original songs. You may use it for private study, scholarship, research or language learning purposes only