» » »

Lullaby Tabs (ver.1)

Artists:  A B C D E F G H I J K L M N O P Q R S T U V W X Y Z # 

Lullaby Tabs (ver.1)

Tea Party
Rating:
3/5 (1 vote)

Tabs too difficult? Try these video lessons and learn fast.
                Song - Lullaby
Artist - The Tea Party 
Tuning - Standard EADGBE

Unlike most other Tea Party songs, this one is pretty easy.

Intro/Verse
-------------------------------------
-5-5-6-5-5-6-5-5-/8-8-6-6------------
-------------------------------------
-------------------------------------
-------------------------------------
-------------------------------------

Pre Chorus
-------------------------------------
-10-10-10-10-10-10-10----------------
-------------------------------------
-7--7--7--7--7--7--7---\\\\----------
-----------------------\\\\----------
-----------------------\\\\----------

Chorus
----------------------------------------------
----------------------------------------------
-10-10-10-10-10-10-9-9-9-9-9-9-7-7-7-7-7-7----
----------------------------------------------
-8--8--8--8--8--8--7-7-7-7-7-7-5-5-5-5-5-5----
----------------------------------------------

Solo (Trem picking)
--------------------------
-10-12-8-5-8-12-10-12-8-5-
--------------------------
--------------------------
--------------------------
--------------------------

And that's everything. Just listen to the song and figure out when to play what.
            
Tabs too difficult? Try these video lessons and learn fast.




comments powered by Disqus
↑ Back to top | Tablatures and chords are parodies/interpretations of the original songs. You may use it for private study, scholarship, research or language learning purposes only