» » »

Fire In The Head Tabs (ver.2)

Artists:  A B C D E F G H I J K L M N O P Q R S T U V W X Y Z # 

Fire In The Head Tabs (ver.2)

Tea Party
Rating:
0/5 (0 votes)

Tabs too difficult? Try these video lessons and learn fast.
                Fire in the Head - Tea Party     (Tuning: DADF#AD) (Intro like Live version)

D |------0-----0-----0-|-----0----0----0--0--|
A |----5-----5---3h5---|---3----3----1----0--|
D |--0-----------------|-0----0----0------0--|

|------------------------------------------------------------------------|
|------------------------------------------------------------------------|
|--8-8\----------8-8\----------9--8----8-9--8----8-9--8----8-9--8-8\-----|
|--7-7\----------7-7\----------8--7----7-8--7----7-8--7----7-8--7-7\-----|
|--5-5\----------5-5\----------6--5----5-6--5----5-6--5----5-6--5-5------|
|------------------------------------------------------------------------|
   You           Stay          silent    knowing   always    in time

|------------------------------------|----|
|------------------------------------|----|
|--6---6--/---8---9----8---6---8-8\--|--0-|
|--5---5--/---7---8----7---5---7-7\--|--0-|
|--3---3--/---5---6----5---3---5-5\--|--0-|
|------------------------------------|--0-|
   See how this love stays divine     
   See how this love stays          divine
					
|--------------------|			
|--------------------|			
|.-8-8---<7>-<7>-<7>-|			
|.-7-7---<7>-<7>-<7>-|			
|--5-5---<7>-<7>-<7>-|			
|--0-0---<7>-<7>-<7>-|			

you stay ... silent, knowing, always in time
see how this love stays divine
see how this love stays divine

sleep here ... hoping, knowing, always in time
see how this love stays divine
see how this love stays divine
this is the way, step inside

Bridge
D|-------0-[2h5p2p0--]-0--2--0-4p0-5p0-7p0-(7p0)--|
A|--0h4----[--------4]----------------------------|

F#|--------8--8----------------------8--8----------------------------------|
 D|--------7--7----------------------7--7----------------------------------|
 A|--------5--5----------------------5--5----------------------------------|
 D|--------0--0----------------------0--0----------------------------------|
(And I'm Wait -  ing)   When I return to her I find             
(And I'm Wait -  ing)   Flowers of evil in my mind       
(And I'm Wait -  ing)   Dancing with fire on the edge           
(And I'm Wait -  ing)   Remembering all of what she said        
(And I'm Wait -  ing)   Hoping the rains will wash away         
(And I'm Wait -  ing)   Hoping a guide will show the way        
(And I'm Wait -  ing)   Dancing with fire on the edge           
(And I'm Wait -  ing)   Remembering all of what she said  

D-------------------------------------------------------------------|
A---------------3--5--7--8--10/7-------------------------0-----0----|
F#-------------------------------------------------------8-----8----|
D---5---7---8--------------------------------------------7-----7----|
A---------------3--5--7--8--10/7-------------------------5-----5----|
D---5---7---8--------------------------------------------0-----0----|
				   with this fire in the head

you stay ... silent, knowing, always in time
see how this love stays divine
see how this love stays divine
this is the way, step inside

Bridge
D|-------0-[2h5p2p0--]-0--2--0-4p0-5p0-7p0-(7p0)--|
A|--0h4----[--------4]----------------------------|

(And I'm Wait -  ing)   When I return to her I find             
(And I'm Wait -  ing)   Flowers of evil in my mind       
(And I'm Wait -  ing)   Dancing with fire on the edge           
(And I'm Wait -  ing)   Remembering all of what she said        
(And I'm Wait -  ing)   Hoping the rains will wash away         
(And I'm Wait -  ing)   Hoping a guide will show the way        
(And I'm Wait -  ing)   Dancing with fire on the edge           
(And I'm Wait -  ing)   Remembering all of what she said 

D-------------------------------------------------------------------|
A---------------3--5--7--8--10/7-------------------------0-----0----|
F#-------------------------------------------------------8-----8----|
D---5---7---8--------------------------------------------7-----7----|
A---------------3--5--7--8--10/7-------------------------5-----5----|
D---5---7---8--------------------------------------------0-----0----|
				   with this fire in the head

D---------------------------------------------------------------------
A---4---1p0--5---4p0--7---5p0--8----7p0--7---5p0--5---4p0--4---1p0--1-
F#--------------------------------------------------------------------
D---------------------------------------------------------------------
A--------------------------------------------------------------------
D---------------------------------------------------------------------

|------------------------------------------------------------------------|
|------------------------------------------------------------------------|
|-----------------------------------------------x-x--x-x--x--------------|
|--7-7-7-7----7-7-7-7----7-7-7-7----7-7-7-7-----x-x--x-x--x--------------|
|--7-7-7-7----7-7-7-7----7-7-7-7----7-7-7-7-----x-x--x-x--x--------------|
|--7-7-7-7----7-7-7-7----7-7-7-7----7-7-7-7-----x-x--x-x--x--------------|
						(yeeaaaaaaaaahhhhhhh!)
sleep here
hoping, knowing, always in time
see how this love stays divine
see how this love stays divine
this is the way, step inside...   (End on "D" Chord and feedback)
            
Tabs too difficult? Try these video lessons and learn fast.




comments powered by Disqus
↑ Back to top | Tablatures and chords are parodies/interpretations of the original songs. You may use it for private study, scholarship, research or language learning purposes only