» » »

Fire In The Head Tabs (ver.1)

Artists:  A B C D E F G H I J K L M N O P Q R S T U V W X Y Z # 

Fire In The Head Tabs (ver.1)

Tea Party
Rating:
3/5 (2 votes)

Tabs too difficult? Try these video lessons and learn fast.
                The Tea Party - Fire In The Head (The Edges of Twilight)
(Tuning: DADF#AD)

E-->D
B-->A (Use the A to tune the B string down to an A)
G-->F# (use the 4th fret on the D/4th string to tune it down)
D-->D
A-->A
E-->D (Drop D)


Intro
D |---------------------|
A |---------------------|
F#|---------------------|
D |------0-----0-----0--|
A |----5-----5---3h5----|
D |--0-----0------------|

D |------------------------------------------------------------------------|
A |------------------------------------------------------------------------|
F#|--8-8----------8-8----------9--8--7-8-9--8--7-8-9--8--7-8-9--8-8-----|
D |--7-7----------7-7----------7--6--5-6-7--6--5-6-7--6--5-6-7--7-7-----|
A |-(5)--------------------------------------------------------------------|
D |------------------------------------------------------------------------|
    You           Stay          silent    knowing   always    in time

D |-----------------------------------------|
A |-------------------8---------------------|
F#|--6-6--------6-8-9---9-8-6-8-9---8-8----|
D |--6-6--------6-6-6---6-6-6-6-6---7-7----|
A |-----------------------------------------|
D |-----------------------------------------|
    See how this love stays divine...

Rhythm fig.1
D |----------------------------------------|
A |----------------------------------------|
F#|.-8-8---<9>-<9>-<9>-<9>-<9>-8--<9>-<9>-.|
D |.-7-7---<9>-<9>-<9>-<9>-<9>-7--<9>-<9>-.|
A |--0-0---<9>-<9>-<9>-<9>-<9--0--<9>-<9>--|
D |--0-0---<9>-<9>-<9>-<9>-<9>-0--<9>-<9>--|

D |------------------------------------------------------------------------|
A |------------------------------------------------------------------------|
F#|--9--8--7-8-9--8--7-8-9--8--7-8-9---8-8---------------------------------|
D |--7--6--5-6-7--6--5-6-7--6--5-6-7---7-7---harmonic-bit-same-as-before---|
A |--0--0--0-0-0--0--0-0-0--0--0-0-0---0-0---------------------------------|
D |------------------------------------0-0---------------------------------|

Then play Rhythm fig.1 the same as before but with distortion.

Interlude - (clean tone)
D |-------0-[2h5p2p0--]-0--2--0-4p0-5p0-7p0-(7p0)--|
A |--0h4----[--------4]----------------------------|
F#|.----------------------------------------------.|
D |.----------------------------------------------.|
A |------------------------------------------------|
D |------------------------------------------------|
The bit in [] is played really fast


Chorus - (The keyboard dictates the harmony and chords.)
D |-------(0)--------------------------------------------------------------|
A |--------0--0----------------------0--0----------------------------------|
F#|--------0--0----------------------0--0----------------------------------|
D |--------7--7----------------------7--7----------------------------------|
A |--------5--5----------------------5--5----------------------------------|
D |--------0--0----------------------0--0----------------------------------|
 and I'm waiting               I'm waiting

Then after all the "I'm waiting" lines he just plays the chord once a bar.
D |------------------------------------------------------------------------|
A |--0---------------------------0-------------------------------0---------|
F#|--0---------------------------0-------------------------------0---------|
D |--7---------------------------7-------------------------------7---------|
A |--5---------------------------5-------------------------------5---------|
D |--0---------------------------0-------------------------------0---------|
   1      2      3      4      1      2  with this fire in the head


Bridge - (After the little keyboard bit)
D |------------------------------------------------------------------------|
A |------------------------------------------------------------------------|
F#|-----------------------------------------------x-x--x-x--x--------------|
D |--7-7-7-7----7-7-7-7----7-7-7-7----7-7-7-7-----x-x--x-x--x--------------|
A |--7-7-7-7----7-7-7-7----7-7-7-7----7-7-7-7-----x-x--x-x--x--------------|
D |--7-7-7-7----7-7-7-7----7-7-7-7----7-7-7-7-----x-x--x-x--x--------------|
            
Tabs too difficult? Try these video lessons and learn fast.


comments powered by Disqus
↑ Back to top | Tablatures and chords are parodies/interpretations of the original songs. You may use it for private study, scholarship, research or language learning purposes only