» » »

Emerald Tabs (ver.1)

Artists:  A B C D E F G H I J K L M N O P Q R S T U V W X Y Z # 

Emerald Tabs (ver.1)

Tea Party
Rating:
5/5 (2 votes)

Hard to play? Try these video lessons and learn fast.
                
This is one of my favourite songs from this album.

Verse
|-*0-------0----0--0--|--0-------0----0--0--0--|--0-------0----0--0----|
|--7-------7----7--7-|--3-------3----0--0--0--|--3-------3----3--3/5--|
|.-0-------0----0--0--|--0-------0----0--0--0--|--0-------0----0--0----|
|.-9-------9----9--9--|--5-------5----5--5--5--|--2-------2----2--2----|
|--9-------9----9--9--|--5-------5----5--5--5--|--3-------3----3--3----|
|--0-------0----0--0--|--0-------0----0--0--0--|-(0)-----(0)--(0)(0)---|
  *up strum

|--0----0--0--0--0--0--0--|
|--0----0--0--0--0--0--0--|
|--0----0--0--0--0--0--0-.|
|--2----2--2--4--4--5--5-.|
|--3----3--3--3--3--3--3--|
|--0----0--0--0--0--0--0--|



|-*0-------0----0--0----|--0-------0-------0--|--0-------0----0--0----|
|--4-------4----4--4/5--|--0-------0-------0--|--3-------3----3--3/5--|
|.-4-------4----4--4----|--4-------2-------1--|--0-------0----0--0----|
|.-2-------2----2--2----|--2-------x-------x--|--2-------2----2--2----|
|--4-------4----4--4----|--4-------4-------4--|--3-------3----3--3----|
|-----------------------|---------------------|-----------------------|

|--0----0--0--0--0--0--0--|
|--0----0--0--0--0--0--0--|
|--0----0--0--0--0--0--0-.|
|--2----2--2--4--4--5--5-.|
|--3----3--3--3--3--3--3--|
|--0----0--0--0--0--0--0--|

CHORUS - The acoustic plays the notes in brackets as well as the others,
         where as the electric with distortion doesn't.

|--(0)----------------------------|----------------------------------|
|--(0)----------------------------|----------------------------------|
|.-14-----14-14--14----13-13--13--|--14-----14-14--14----16-16--16--|
|.--x------x--x---x-----x--x---x--|---x------x--x---x-----x--x---x---|
|--12-----12-12--12----11-11--11--|--12-----12-12--12----14-14--14--|
|---------------------------------|----------------------------------|
                                   1st time
|---------------------------------|----------------------------------|
|---------------------------------|----------------------------------|
|--11-----11-11--11----12-12--12--|--11-----11-11--11-----9--9---9--.|
|---x------x--x---x-----x--x---x--|---x------x--x---x-----x--x---x--.|
|---9------9--9---9----10-10--10--|---9------9--9---9-----7--7---7---|
|---------------------------------|----------------------------------|

 last time
|---------------------------------|
|---------------------------------|
|--11-----11-11---9---------------|
|---x------x--x---x---------------|
|---9------9--9---7---------------|
|---------------------------------|

Bridge: - There is some effect used here and I have no idea what it is,
          so if you happen to know, please tell me. These are the chords
          he uses.  I haven't written out the rhythm.
|--0-------|--0------|--0------|--0------|
|--0-------|--0------|--0------|--0------| There is also another guitar
|.-x-------|--5------|--2------|--4-----.| following the melody that Jeff
|.-7-------|--5------|--3------|--5-----.| sings. I'm not going to tab this
|--7-------|--3------|--3------|--5------| out yet.
|--5-------|---------|--1------|--3------|

There is that run after the bridge too leading into another chorus.  I'm not
            
Hard to play? Try these video lessons and learn fast. | Correct




comments powered by Disqus
↑ Back to top | Tablatures and chords are parodies/interpretations of the original songs. You may use it for private study, scholarship, research or language learning purposes only