>
 >
The Dreamer

The Dreamer Chords

The Tallest Man On Earth - The Dreamer chords, tabs, tablatures, lyrics

Guitar lessons | Add/correct | Request | Top 50 tabs Artists:  A B C D E F G H I J K L M N O P Q R S T U V W X Y Z 0-9

The Dreamer Chords – The Tallest Man On Earth

CD, Sheet music, Poster

Do you like The Dreamer? Share with your friends now
ChordsChords v2TabsUkulele
-------------------------------------------------------------------------------
-------------------------------------------------------------------------------




Tuning: Standard


Chords - E A D G B e
Dm     - 5 7 7 6 x x
Dm7    - 5 5 7 6 x x
G      - 3 5 5 4 x x
Gsus4  - 3 5 5 5 3 x
C      - x 3 2 0 1 0
F      - 1 3 3 2 x x
E      - 0 2 2 1 0 0 



** Note, the chorus is played with open chords except the Gsus4 of course :)** 



Intro: 
        Dm           G      C                  F
e|------------------------------------------------------------------|
B|------6-6-----------------1---------------------------------------|
G|------7-7----------4------0------------------2--------------------|
D|------7-7----------5------2-2p0-2p0----------3--------------------|
A|--5---5-5----------5------3------------------3--------------------|
E|---------------3---3---------------------1---1--------------------|

        Dm7          G      C                  F
e|------------------------------------------------------------------|
B|------6-------------------1---------------------------------------|
G|------5------------4------0------------------2--------------------|
D|------7------------5------2-2p0-2p0----------3--------------------|
A|--5--(5)-----------5------3------------------3--------------------|
E|---------------3---3---------------------1---1--------------------|






Verse 1:

Dm                G          C        F
   I'm just a dreamer but I'm hanging on
Dm             G              C       F
   Though I am nothing big to offer
Dm              G              C            F
   I watch the birds, how they dive in then gone
          E                F            Gsus4   G
It's like nothing in this world's ever still

Dm                G          C               F
   And I'm just a shadow of your thoughts in me
Dm               G             C         F
   But sun is setting, shadows growing
Dm             G             C       F
   A long cast figure will turn into night
          E                F          Gsus4   G
It's like nothing in this world ever sleeps



Chorus:

   C             F              G        C     
Oh sometimes the blues is just a passing bird
    Am             F        Gsus4   G
And why can't that always be
C       F              G        C     
Tossing aside from your birches crown
Am          F         Gsus4   G
Just enough dark to see

How you're the light over me

(Same as intro)
Dm  G C F 
Dm7 G C F 


Verse 2:

And by your side, girl, where the acres grow
Into the strong and stunning meadow
A cowboy stumbling in the finest field
And nothing good out there won't be old


Chorus:

Oh sometimes the blues is just a passing bird
And why can't that always be
Tossing aside from your birches crown
Just enough dark to see
How you're the light over me


(Same as chorus)
C F G C 
Am F Gsus4 G


Chorus:
Sometimes the blues is just a passing bird
And why can't that always be
Tossing aside from your birches crown
Just enough dark to see
How you're the light over me


(Same as intro)x3
Dm  G C F 
Dm7 G C F 


************************************

| /   slide up
| \   slide down
| h   hammer-on
| p   pull-off
| ~   vibrato
| +   harmonic
| x   Mute note
| b   Bend
| pb  Pre-bend
| br  Bend release
| pbr Pre-bend release
| brb Bend release bend

************************************





Comments


Popular The Tallest Man On Earth tabs & chords
Love Is All Chords
The Blizzards Never Seen The Desert Sands Chords
The Gardener 1 Chords
Theres No Leaving Now Chords
Death Letter Tabs
The Gardener Tabs
Thousand Ways Tabs
King Of Spain Ukulele
Pistol Dreams Ukulele
Youre Going Back Ukulele


Song lyrics



↑ Back to top | Tablatures and chords are parodies/interpretations of the original songs. You may use it for private study, scholarship, research or language learning purposes only
© 2014 AZChords.com Contact us | Privacy policy | DMCA | Add/correct tabs | Request tabs | Top 50 tabs