>
 >
The Verb

The Verb Guitar Tabs

The Swell Season - The Verb chords, tabs, tablatures, lyrics

Guitar lessons | Add/correct | Request | Top 50 tabs Artists:  A B C D E F G H I J K L M N O P Q R S T U V W X Y Z 0-9

The Verb Guitar Tabs – The Swell Season

CD, Sheet music, Poster

Do you like The Verb? Share with your friends now
Tabs
-----------------------------------------------------------------


Tuning: Drop D

Verse progression is a changing bass note over a common chord, picking is 16th notes in 
time.


Verse (x4)
  1 e + a 2 e + a 3 e + a 4 e + a 1 e + a 2 e + a 3 e + a 4 e + a
e|---------------------------------------------------------------|
B|---------------------------------------------------------------|
G|--2-----2---------2-----2---------2-----2---------2-----2------|
D|----0-----0---0-----0-----0---0-----0-----0---0-----0-----0---0|
A|---------------------------------------------------------------|
D|3-----3-----3---3-----3-----3---4-----4-----4---4-----4-----4--|

  1 e + a 2 e + a 3 e + a 4 e + a 1 e + a 2 e + a 3 e + a 4 e + a
e|---------------------------------------------------------------|
B|---------------------------------------------------------------|
G|--2-----2---------2-----2---------2-----2---------2-----2------|
D|----0-----0---0-----0-----0---0-----0-----0---0-----0-----0---0|
A|2-----2-----2---0-----0-----0----------------------------------|
D|--------------------------------5-----5-----5---5-----5-----5--|

Verse ends on this chord for one measure:
e|----------|
B|----------|
G|-2--------|
D|-2--------|
A|-0--------|
D|-4--------|

Chorus(x2) Difficult timing to count 16ths, you'll hear it in the song
  1 e + a 2 e + a 3 e + a 4 e + a 1 e + a 2 e + a 3 e + a 4 e + a
e|---------------------------------------------------------------|
B|---------------------------------------------------------------|
G|---------------------------------------------------------------|
D|------4---4-----4-----4-------4-------5---5-----5-----5-------5|
A|------------5-----------5---5---------------5-------5---5---5--|
D|0---0---------------0-----------5---5--------------------------|
     "I'm tired of fighting..."      "Your words just rattle..."

  1 e + a 2 e + a 3 e + a 4 e + a 1 e + a 2 e + a 3 e + a 4 e + a
e|---------------------------------------------------------------|
B|---------------------------------------------------------------|
G|---------------------------------------------------------------|
D|------2---2-------2---2-------2-------0---0-------0---0-------0|
A|4---4-------4---4-------4---4----------------------------------|
D|--------------------------------5---5-------5---5-------5---5--|
     "All joy escapes..."            "And I can't make this..."

The second half of the chorus changes the picking a bit, but the notes are the same... 
get a nice upbeat rhythym and it will sound fine.

The break after the chorus uses the first two finger positions of the verse, but with a 
upbeat picking pattern.

This should serve as a good starting point to the song, now you just need a someone like 
to sing it with...





Comments


Popular The Swell Season tabs & chords
Concentric Chords
Feeling The Pull Chords
Leave Chords
The Rain 1 Chords
Two Tongues Chords
Low Rising 1 Tabs
The Swell Season Intro Tabs
Back Broke Ukulele
Leave Ukulele
The Moon Ukulele


Song lyrics



↑ Back to top | Tablatures and chords are parodies/interpretations of the original songs. You may use it for private study, scholarship, research or language learning purposes only
© 2014 AZChords.com Contact us | Privacy policy | DMCA | Add/correct tabs | Request tabs | Top 50 tabs