» » »

The Swell Season, Low Rising Tabs (ver.2)

Artists:  A B C D E F G H I J K L M N O P Q R S T U V W X Y Z # 

Low Rising Tabs (ver.2)

The Swell Season Tabs
Rating:
0/5 (0 votes)
Low Rising lessons Tabs too difficult? Try these video lessons and learn fast
                -------------------------------------------------------------------------------
                             LOW RISING - The Swell Season
-------------------------------------------------------------------------------

Tuning: Standard

Intro:
e|---------------------------------------------------------------------------|
B|---------------------------------------------------------------------------|
G|---------------------------------------------------------------------------|
D|--------9h11p9------9-------9h11p9------9----------------------------------|
A|-9/11-----------11-----9/11-----------11-----------------------------------|
E|---------------------------------------------------------------------------|

e|---------------------------------------------------------------------------|
B|---------------------------------------------------------------------------|
G|---------------------------------------------------------------------------|
D|-----2h4p2------2-------2h4p9------2---------------------------------------|
A|-2/4-----------4-----2/4-----------4---------------------------------------|
E|---------------------------------------------------------------------------|


Verse 1:
E
I wanna sit you down and talk

I wanna pull back the veils
    C#m
And find out what it is I've done wrong
E
I wanna tear these curtains down
                           C#m
I want you to meet me somewhere

Tonight in this old tourist town

And we'll go

Chorus:
A       C#m       E
Low rising

E
'Cause we've gotta come up

E
We've gotta come up
A      C#m              E
Low rising

E
'Cause I fear we've had enough

A      C#m           E
Low rising

E
'Cause there's no further for us to fall

A    C#m   
Low rising

F#m                      E    
Oh, for the love of you


Verse 2:
E
I wanna take you to the rock

E
I wanna jump right in

        C#m
And see what that big ocean's got

E
I wanna turn this thing around

E
I wanna drink with you

    C#m
All night, till we both fall down

Till we go


Chorus:
A       C#m       E
Low rising

E
'Cause we've gotta come up

E
We've gotta come up

A      C#m              E
Low rising

E
'Cause there's no further for us to fall

A      C#m           E
Low rising

E
'Cause I fear we've had enough

A    C#m   
Low rising

F#m                      E    
Oh, for the love of you

E
Low Rising

(solo)
(keep playing E and C#m)

A       C#m       E
Low rising

E
'Cause we've gotta come up

E
We've gotta come up
A      C#m              E
Low rising

E
'Cause I fear we've had enough

A      C#m           E
Low rising

E
'Cause there's no further for us to fall

A    C#m   
Low rising

F#m                      E    
Oh, for the love of you

(
                    E
For the love of you
                   C#m
For the love of you
                       E
Low rising, low rising
                             C#m
I wanna sit you down and talk
                                           E
I wanna sit you down and talk about it now 

E, C#m, E, C#m, E, C#m, E
            
Submit corrections

comments powered by Disqus
↑ Back to top | The Swell Season Tabs for Low Rising. Lyrics for acoustic guitar and electric guitar. Tablatures and chords are parodies/interpretations of the original songs. You may use it for private study, scholarship, research or language learning purposes only