» » »

The Summer Set, The Boys You Do Chords (ver.2)

Artists:  A B C D E F G H I J K L M N O P Q R S T U V W X Y Z # 

The Boys You Do Chords (ver.2)

The Summer Set Tabs
 Rating:
4.2/5 (5 votes)
The Boys You Do lessons Tabs too difficult? Try these video lessons and learn fast
                Intro:

E|----------------------------------------|
B|------3----------5-------3--------3-----|
G|----2--2-(/6)---6--6----4---4----4---4--|
D|--0----------7-------5--------5---------|
A|----------------------------------------|
E|----------------------------------------|

Verse:
    D    A    G    G
E|--2----0----0----0---|
B|--3----5----3----3---|
G|--2----6----4----4---|
D|--0----7----5----5---|
A|---------------------|
E|---------------------|

Chorus:

A
I heard you're talking...

D     G      G       A

D             G      G      A
all your friends

D         G
boys you do

     A               Bm
get back       at you

        G              A               D
You can't forget the monsters in your bed

Repeat Intro and then another Verse and Chorus
I'll add the bridge when I figure it out.
            
Submit corrections

comments powered by Disqus
↑ Back to top | The Summer Set Chords for The Boys You Do. Lyrics for acoustic guitar and electric guitar. Tablatures and chords are parodies/interpretations of the original songs. You may use it for private study, scholarship, research or language learning purposes only