» » »

The Boys You Do Tabs (ver.1)

Artists:  A B C D E F G H I J K L M N O P Q R S T U V W X Y Z # 

The Boys You Do Tabs (ver.1)

The Summer Set
Rating:
5/5 (3 votes)
Tabs too difficult? Try these video lessons and learn fast.
                ---------------------------------|
---------------------------------|
LABEL:     Razor & Tie
TUNING:    Both guitars in Drop-D
---------------------------------|
---------------------------------|

Well, there was no tab for this (minus some kinda right chord chart), so here's how my 
plays it.

I've lined up the parts as best as I can so you can use one to figure out the timing of 
other. Some of it is just going to have to be by ear. Palm muting is intentionally not notated.

Also, I understand that I might not have assigned the right parts to the right guitarist 
each situation. This is just how a friend and I split up the two when we cover it.

------
INTRO:
------

(guitar one)
|------------------------------------|
|------------------------------------|
|----7-----7-7-----------------------|Repeat
|x\--7-----7-5---------5-5h7-7----7--|  x2
|x\--5-----5-5---------5-5h7-7----7--|
|x\--------5-5---------5-5h7-7----7--|

(guitar two)
|--------------------------------------|
|----7---8s7-8s7-8s7-8s7-8s7-8s10-8s7--|
|--------------------------------------|Repeat
|----4---5s4-5s4-5s4-5s4-5s4-5s7--5s4--|  x2
|--------------------------------------|
|--------------------------------------|

--------
VERSE 1:
--------

"I found a skeleton..."

(guitar one)
|----------------------------------------------------------|
|----5---5---3---3---5h7p5--5---3---3----------------------|
|---7-7-6-6-4-4-4-4-7------6-6-4-4-4-4---------------------|Repeat
|--0---7---5---5---0------7---5---5------------------------|  x2
|----------------------------------------------------------|
|----------------------------------------------------------|

(guitar two)
|----------------------------------------------------------|
|--7-s-10-s8-------7--s---10-s8----------------------------|
|----------------------------------------------------------|Repeat
|----------------------------------------------------------|  x2
|----------------------------------------------------------|
|----------------------------------------------------------|

"Or are you nervous..."

(guitar one)
|----------------------------------------|
|----------------------------------------|
|-7-7-7--7-7-7-7-7-7-7-7-----------------|
|-5-5-5--7-7-7-7-7-7-7-7-7-7-7-7-7-7-7-7-|
|-5-5-5--5-5-5-5-5-5-5-5-7-7-7-7-7-7-7-7-|
|-5-5-5------------------7-7-7-7-7-7-7-7-|

(guitar two)
|----------5---5---5---5---5---5---5---5-|
|--------7---7---7---7---5---5---5---5---|
|----------------------------------------|
|----------------------------------------|
|----------------------------------------|

(guitar one)
|---------------------------------|
|---------------------------------|
|---------------------------------|
|-5-5-5-5-5-5-5-5-7-7-7-7-7-7-7-7-|
|-5-5-5-5-5-5-5-5-7-7-7-7-7-7-7-7-|
|-5-5-5-5-5-5-5-5-7-7-7-7-7-7-7-7-|

(guitar two)
|---3---3---3---3---5---5---5---5-|
|-3---3---3---3---5---5---5---5---|
|---------------------------------|
|---------------------------------|
|---------------------------------|

------------
PRECHORUS 1:
------------

"Get me out of your head..."

(guitar one)
|-----------------------------------------------------------------|
|-----------------------------------------------------------------|
|-----------------------------------------------------------------|
|-9-9-9-9-9-9-9-9-7-7-7-7-7-7-7-7-5-5-5-5-5-5-5-5-7-7-7-7-7-7-7-7-|
|-9-9-9-9-9-9-9-9-7-7-7-7-7-7-7-7-5-5-5-5-5-5-5-5-7-7-7-7-7-7-7-7-|
|-9-9-9-9-9-9-9-9-7-7-7-7-7-7-7-7-5-5-5-5-5-5-5-5-7-7-7-7-7-7-7-7-|

(guitar two)
|---5---5---5---5---5---5---5---5---3---3---3---3---5---5---5---5-|
|-7---7---7---7---5---5---5---5---3---3---3---3---5---5---5---5---|
|-----------------------------------------------------------------|
|-----------------------------------------------------------------|
|-----------------------------------------------------------------|

-------
CHORUS:
-------

"I heard you're talking..."

(guitar one)
|----------------------------------|
|----------------------------------|
|--7-----7-7-----------------------|Repeat
|--7-----7-5---------5-5h7-7----7--|  x2
|--5-----5-5---------5-5h7-7----7--|
|--------5-5---------5-5h7-7----7--|

(guitar two)
|----------------------------------|
|--15------------------------------|
|----------------------------------|Repeat
|--12(x16)-------------------------|  x2
|----------------------------------|
|----------------------------------|

"the boys you do"

(guitar one)
|----------------------------------------------------------------|
|----------------------------------------------------------------|
|--7------7--7---------------------------------------------------|
|--7------7--5-------7--7-------9--9-------5-------7-------------|
|--5------5--5-------7--7-------9--9-------5-------7-------------|
|---------5--5-------7--7-------9--9-------5-------7-------------|

(guitar two)
|----------------------------------------------------------|
|----------------------------------------------------------|
|--7-----12-12------11-s9------14s11-------7-------9-------|
|----------------------------------------------------------|
|--5-----10-10-------9-s7------12--9-------5-------7-------|
|----------------------------------------------------------|

---------
PREVERSE:
---------

(guitar one)
|----------------------------------------------------------|
|----5---5---3---3---5h7p5--5---3---3----------------------|
|---7-7-6-6-4-4-4-4-7------6-6-4-4-4-4---------------------|
|--0---7---5---5---0------7---5---5------------------------|
|----------------------------------------------------------|
|----------------------------------------------------------|

(guitar two)
|----------------------------------------------------------|
|--7-s-10-s8-------7--s---10-s8----------------------------|
|----------------------------------------------------------|
|----------------------------------------------------------|
|----------------------------------------------------------|
|----------------------------------------------------------|

--------
VERSE 2:
--------

"I put a monster..."

(guitar one)
|--------------------------------------------------------------------|
|------5-------5-------3-------3-------5h7p5-----5-------3-------3---|
|----7---7---6---6---4---4---4---4---7---------6---6---4---4---4---4-|Repeat
|--0-------7-------5-------5-------0---------7-------5-------5-------|  x2
|--------------------------------------------------------------------|
|--------------------------------------------------------------------|

(guitar two)
|--------------------------------------------------------------------|
|--------------------------------------------------------------------|
|--7-7-7-7-------------------------7-7-7---7-------------------------|Repeat
|--7-7-7-7-7-7-7-7-5-5-5-5-5-5-5-5-7-7-7---7-7-7-7-7-5-5-5-5-5-5-5-5-|  x2
|--5-5-5-5-7-7-7-7-5-5-5-5-5-5-5-5-5-5-5---5-7-7-7-7-5-5-5-5-5-5-5-5-|
|----------7-7-7-7-5-5-5-5-5-5-5-5-----------7-7-7-7-5-5-5-5-5-5-5-5-|

------------
PRECHORUS 2:
------------

"You're making me sick girl..."

(guitar one)
|---5---5---5---5---5---5---5---5---5---5---5---5---5---5---5---5|
|-3---3---3---3---3---3---3---3---3---3---3---3---3---3---3---3--|
|----------------------------------------------------------------|
|----------------------------------------------------------------|
|----------------------------------------------------------------|
|----------------------------------------------------------------|

(guitar two)
|----------------------------------------------------------------|
|----------------------------------------------------------------|
|----------------------------------------------------------------|
|-7-7---9-9---5-------------------7-7---9-9---5---5-5-5-5/-------|
|-7-7---9-9---5-------------------7-7---9-9---5---5-5-5-5/-------|
|-7-7---9-9---5-------------------7-7---9-9---5---5-5-5-5/-------|

-------
CHORUS:
-------

"I heard you're talking..."

(guitar one)
|----------------------------------|
|----------------------------------|
|--7-----7-7-----------------------|Repeat
|--7-----7-5---------5-5h7-7----7--|  x2
|--5-----5-5---------5-5h7-7----7--|
|--------5-5---------5-5h7-7----7--|

(guitar two)
|----------------------------------|
|--15------------------------------|
|----------------------------------|Repeat
|--12(x16)-------------------------|  x2
|----------------------------------|
|----------------------------------|

"the boys you do"

(guitar one)
|----------------------------------------------------------|
|----------------------------------------------------------|
|--7------7--7---------------------------------------------|
|--7------7--5-------7--7-------9--9-------5-------7-------|
|--5------5--5-------7--7-------9--9-------5-------7-------|
|---------5--5-------7--7-------9--9-------5-------7-------|

(guitar two)
|----------------------------------------------------------|
|----------------------------------------------------------|
|--7-----12-12------11-s9------14s11-------7-------9-------|
|----------------------------------------------------------|
|--5-----10-10-------9-s7------12--9-------5-------7-------|
|----------------------------------------------------------|

-------
BRIDGE:
-------

"We'll fall out again..."

(guitar one)
|---------------------------------------------------------------|
|---------------------------------------------------------------|
|---------------------------------------------------------------|
|--9--------7--------5-------s9--------7--------5--------7------|
|--9--------7--------5-------s9--------7--------5--------7------|
|--9(x16)---7(x16)---5(x32)--s9(x16)---7(x16)---5(x16)---7(x16)-|

(guitar two)
|---------------------------------------------------------------|
|---------------------------------------------------------------|
|--7--------6--------4-------s7--------6--------4--------6------|
|---------------------------------------------------------------|
|--5(x16)---4(x16)---2(x32)--s5(x16)---4(x16)---2(x16)---4(x16)-|
|---------------------------------------------------------------|

------------
PRECHORUS 3:
------------

(guitar one)
|----------------------------------------------------------|
|----5---5---3---3---5h7p5--5---3---3----------------------|
|---7-7-6-6-4-4-4-4-7------6-6-4-4-4-4---------------------|Repeat
|--0---7---5---5---0------7---5---5------------------------|  x2
|----------------------------------------------------------|
|----------------------------------------------------------|

(guitar two)
|----------------------------------------------------------|
|--7-s-10-s8-------7--s---10-s8----------------------------|
|----------------------------------------------------------|Repeat
|----------------------------------------------------------|  x2
|----------------------------------------------------------|
|----------------------------------------------------------|

(guitar one)
|---------------------------------------------------------------------|
|------5-------5-------3-------3-------5h7p5-----5-------3-------3----|
|----7---7---6---6---4---4---4---4---7---------6---6---4---4---4---4--|
|--0-------7-------5-------5-------0---------7-------5-------5--------|
|---------------------------------------------------------------------|
|---------------------------------------------------------------------|

(guitar two)
|---------------------------------------------------------------------|
|--7-----s10------s8----------------7------s10------------------------|
|---------------------------------------------------------------------|
|----------------------------------------------------5-5-5-5-7-7-7-7--|
|----------------------------------------------------5-5-5-5-7-7-7-7--|
|----------------------------------------------------5-5-5-5-7-7-7-7--|

-------
CHORUS:
-------

"I heard you're talking..."

(guitar one)
|----------------------------------|
|----------------------------------|
|--7-----7-7-----------------------|Repeat
|--7-----7-5---------5-5h7-7----7--|  x2
|--5-----5-5---------5-5h7-7----7--|
|--------5-5---------5-5h7-7----7--|

(guitar two)
|----------------------------------|
|--15------------------------------|
|----------------------------------|Repeat
|--12(x16)-------------------------|  x2
|----------------------------------|
|----------------------------------|

"the boys you do"

(guitar one)
|----------------------------------------------------------|
|----------------------------------------------------------|
|--7------7--7---------------------------------------------|
|--7------7--5-------7--7-------9--9-------5-------7-------|
|--5------5--5-------7--7-------9--9-------5-------7-------|
|---------5--5-------7--7-------9--9-------5-------7-------|

(guitar two)
|----------------------------------------------------------|
|----------------------------------------------------------|
|--7-----12-12------11-s9------14s11-------7-------9-------|
|----------------------------------------------------------|
|--5-----10-10-------9-s7------12--9-------5-------7-------|
|----------------------------------------------------------|

(guitar one)
|----------------------------------|
|----------------------------------|
|--7-----7-7-----------------------|Repeat
|--7-----7-5---------5-5h7-7----7--|  x2
|--5-----5-5---------5-5h7-7----7--|
|--------5-5---------5-5h7-7----7--|

(guitar two)
|----------------------------------|
|--15------------------------------|
|----------------------------------|Repeat
|--12(x16)-------------------------|  x2
|----------------------------------|
|----------------------------------|

"the boys you do"

(guitar one)
|----------------------------------------------------------|
|----------------------------------------------------------|
|--7------7--7---------------------------------------------|
|--7------7--5-------7--7-------9--9-------5-------7-------|
|--5------5--5-------7--7-------9--9-------5-------7-------|
|---------5--5-------7--7-------9--9-------5-------7-------|

(guitar two)
|----------------------------------------------------------|
|----------------------------------------------------------|
|--7-----12-12------11-s9------14s11-------7-------9-------|
|----------------------------------------------------------|
|--5-----10-10-------9-s7------12--9-------5-------7-------|
|----------------------------------------------------------|

------
OUTRO:
------

(guitar one)
|------------------------------------|
|------------------------------------|
|----7-----7-7-----------------------|Repeat
|----7-----7-5---------5-5h7-7----7--|  x2
|----5-----5-5---------5-5h7-7----7--|
|----------5-5---------5-5h7-7----7--|

(guitar two)
|--------------------------------------|
|----7---8s7-8s7-8s7-8s7-8s7-8s10-8s7--|
|--------------------------------------|Repeat
|----4---5s4-5s4-5s4-5s4-5s4-5s7--5s4--|  x2
|--------------------------------------|
|--------------------------------------|


---------------------------|
---------------------------|
KEY:
x - mute or pick slide
/ - slide up
\ - slide down
h - hammer on
p - pull off
s - slide
---------------------------|
---------------------------|
            
Tabs too difficult? Try these video lessons and learn fast.


comments powered by Disqus
↑ Back to top | Tablatures and chords are parodies/interpretations of the original songs. You may use it for private study, scholarship, research or language learning purposes only