» » »

The Summer Set, Papercut Tabs (ver.1)

Artists:  A B C D E F G H I J K L M N O P Q R S T U V W X Y Z # 

Papercut Tabs (ver.1)

The Summer Set Tabs
 Rating:
4.2/5 (5 votes)
Papercut lessons Tabs too difficult? Try these video lessons and learn fast
                -----------------------------------------------------------------------------
                             Papercut – The Summer Set
-----------------------------------------------------------------------------

Tuning: Open G
   
  INTRO

d|-----------------|
A|-----------------|
G|-4-6-7-6-4-2-4-2-|
D|-0-0-0-0-0-0-0-0-|
A|-0-0-0-0-0-0-0-0-|
D|-5-7-9-7-5-4-5-0-| X4

VERSE

d|-------------------------------------------------------------|
A|-------------------------------------------------------------|
G|-2-4-6---2-4-6---7-6-4-6---7-6-4---2-4-6---7-6-4-6---7-6-4-6-|
D|-0-0-0---0-0-0---0-0-0-0---0-0-0---0-0-0---0-0-0-0---0-0-0-0-|
A|-0-0-0---0-0-0---0-0-0-0---0-0-0---0-0-0---0-0-0-0---0-0-0-0-|
D|-0-5-7---0-5-7---9-7-5-7---9-7-5---0-5-7---9-7-5-7---9-7-5-7-|

CHORUS

d|----------------------------------|
A|----------------------------------|
G|-7-6-4-6---7-6-6-4-6---7-6-6-4~6~-|
D|-0-0-0-0---0-0-0-0-0---0-0-0-0~0~-|
A|-0-0-0-0---0-0-4-0-0---0-0-4-0~0~-|
D|-9-7-5-7---9-7-0-5-7---9-7-0-5~7~-|

INTRO X2

VERSE

CHORUS

BRIDGE

d|----------------------------------------|
A|----------------------------------------|
G|-2-4-7-6---2-4-7-6---2-4-7-6---2-4-7~6~-|
D|-0-0-0-0---0-0-0-0---0-0-0-0---0-0-0~0~-|
A|-0-0-0-0---0-0-0-0---0-0-0-0---0-0-0~0~-|
D|-0-5-9-7---0-5-9-7---0-5-9-7---0-5-9~7~-|

CHORUS




d|----------------------------------------------------|
A|----------------------------------------------------|
G|-4-6-7-6-6---4-6-7-6-6---4-6-7-6-6---4-6-7-6~6~4~6~-|
D|-0-0-0-0-0---0-0-0-0-0---0-0-0-0-0---0-0-0-0~0~0~0~-|
A|-0-0-0-0-4---0-0-0-0-4---0-0-0-0-4---0-0-0-0~4~0~0~-|
D|-5-7-9-7-0---5-7-9-7-0---5-7-9-7-0---5-7-9-7~0~5~7~-|

VERSE

d|--------------------------------------------------------------------------|
A|--------------------------------------------------------------------------|
G|-2-----4-6---2-----4-6---7-6-4-6---7-6-4----------------------------------|
D|--------------------------------------------------------------------------|
A|--------------------------------------------------------------------------|
D|-0-0-0-5-7---0-0-0-5-7---9-7-5-7---9-7-5----------------------------------|
     X X         X X       
=============================================================================
            
Submit corrections

comments powered by Disqus
↑ Back to top | The Summer Set Tabs for Papercut. Lyrics for acoustic guitar and electric guitar. Tablatures and chords are parodies/interpretations of the original songs. You may use it for private study, scholarship, research or language learning purposes only