>
 >
Mona Lisa

Mona Lisa Chords

The Summer Set - Mona Lisa chords, tabs, tablatures, lyrics

Guitar lessons | Add/correct | Request | Top 50 tabs Artists:  A B C D E F G H I J K L M N O P Q R S T U V W X Y Z 0-9

Mona Lisa Chords – The Summer Set

CD, Sheet music, Poster

Do you like Mona Lisa? Share with your friends now
ChordsChords v2Chords v3Chords v4Ukulele
I learned this song by ear. Hope you enjoy! :)

Capo 4

Intro: D (4x)

         D              F#m
Girl I'd steal the Mona Lisa,
         Bm             A 
But I'd know I wouldn't keep her.
        G                 Bm        A
Cause I wake up next to you everyday.

Verse 2:
     D          F#m          Bm         A 
I'd buy the Taj Mahal, never visit it at all,
    G               Bm            A
If that's the only price I gotta pay.



       G     Gm        Bm   D        G   Bm   A
Cause I've never loved anything like I love you.


    D                F#m
I'd go and catch the moon,
         Bm              A
Then I'd drag it down to you,
      G                   Bm            A
But I know that you'd be brighter anyway.

    D                    F#m   
I'd walk the whole Great Wall,
          Bm                    A 
And every brick, I'd count them all,
         G       Bm          A
Then I'd start over the next day.

       G     Gm        Bm   D        G   Bm   A
Cause I've never loved anything like I love you,
     G  Bm  A
Like I love you.
     G  Bm  A
Like I love you.

Guitar I:
e|----------------------------------|--------------------|
b|-----------11~---11-9~----9-------|-11~---11-9~---9----|
G|--10-11-13----11-------10---11~-8~|----11------10---11~|
D|----------------------------------|--------------------|
A|----------------------------------|--------------------|
E|----------------------------------|--------------------|
Guitar II:    D       A        G    | Bm        A      G |

Guitar I:
e|----------------------------------|----------9~----------|
b|-----------11~---11-9~----9-------|-11~---11-------9-----|
G|--10-11-13----11-------10---11~-8~|----11-------10---11~-|
D|----------------------------------|----------------------|
A|----------------------------------|----------------------|
E|----------------------------------|----------------------|
Guitar II:    D       A        G    | Bm        A      G   |

Guitar I:
e|------------------------|
b|--------9~--11~--9~-----|
G|-10-11~--------------11~|
D|------------------------|
A|------------------------|
E|------------------------|
Guitar II: Gm               
   
              D                 F#m
Turn on every light in New York City,
             Bm                   A
I'd still be blind if you weren't with me.
           G             Bm    A
You're the one who opens up my eyes,

      G      Gm        Bm   D       G  Bm   A     
Cause I've never loved anything like I love you,
     G  Bm   A
Like I love you,
     G  Bm   A
Like I love you.

    D          F#m
I'd steal the Mona Lisa,
        Bm               A
But I'd know I wouldn't keep her.
        G               Bm       A
Cause I wake up next to you everyday.

****
Here's a link to my channel (CountingEveryStar): 
Hope i helped! :)





Comments


Popular The Summer Set tabs & chords
Chelsea 1 Chords
Girls Freak Me Out Chords
Punch Drunk Love Chords
Love In This Club 1 Tabs
Passenger Seat Tabs
Punch Drunk Love Tabs
The Boys You Do Tabs
Boomerang Ukulele
Girls Freak Me Out Ukulele
Shes Got The Rhythm Ukulele


Song lyrics



↑ Back to top | Tablatures and chords are parodies/interpretations of the original songs. You may use it for private study, scholarship, research or language learning purposes only
© 2014 AZChords.com Contact us | Privacy policy | DMCA | Add/correct tabs | Request tabs | Top 50 tabs