» » »

Love In This Club Tabs (ver.1)

Artists:  A B C D E F G H I J K L M N O P Q R S T U V W X Y Z # 

Love In This Club Tabs (ver.1)

The Summer Set
Rating:
4/5 (1 vote)

Hard to play? Try these video lessons and learn fast.
                Hey this is my first tab. It's on the summer set's version of Love in this club.


Tuning:DROP D

Intro part (come in and play it twice after the keyboard plays the intro twice)
e-----------------------------------------------------------------|
B-----------------------------------------------------------------|
G-4------6------8----- 11------13-------11------9-------8---------|
D-x-(X6)-x-(X1)-x-(X6)-x--(X1)-x--(X6)--x--(X1)-x--(X6)-x-(X1)----|
A-2------4------6------9-------11-------9-------7-------6---------|
D-----------------------------------------------------------------|


(Verse)
"You see you searching for somebody"

e--------------------------------------------------------|
B--------------------------------------------------------|
G--4-4--4-4-4--------------------------------------------| (Play Twice)
D--4-4--4-4-4---4-4--4-4-4---6-6--6-6-6---2-2--2-2-2-----|
A--2-2--2-2-2---4-4--4-4-4---6-6--6-6-6---2-2--2-2-2-----|
D---------------4-4--4-4-4---6-6--6-6-6---2-2--2-2-2-----|
   x x  x x x   x x  x x x   x x  x x x   x x  x x x

"You know all you gotta do is tell me what you sippin' on"
e--------------------------------------------------------|
B--------------------------------------------------------|
G--4-----------------------------------------------------|(Play Twice)
D--4-(X4)--4-------6-------2-----------------------------|
A--2-------4-(X4)--6-(X4)--2--(X4)-----------------------|
D----------4-------6------ 2-----------------------------|
   x       x       x       x

"Looking in your eyes while you walk the other side"
e---------------------------------------------------------|
B---------------------------------------------------------|
G--4------------------------------------------------------|(Play Twice, and let ring)
D--4-(X2)--4-------6-------2------------------------------|
A--2-------4-(X2)--6-(X2)--2--(X2)------------------------|
D----------4-------6------ 2------------------------------|


CHORUS
"I wanna make love in this club"
e--------------------------------------------------------|
B--------------------------------------------------------|
G--4-----------------------------------------------------|(Play Twice)
D--4-(X8)--4-------6-------2-----------------------------|
A--2-------4-(X8)--6-(X8)--2--(X8)-----------------------|
D----------4-------6------ 2-----------------------------|

Verse 2 (Played exactly like verse 1)
"You got some friends rolling wit you baby then that's cool"
e--------------------------------------------------------|
B--------------------------------------------------------|
G--4-4--4-4-4--------------------------------------------| (Play Twice)
D--4-4--4-4-4---4-4--4-4-4---6-6--6-6-6---2-2--2-2-2-----|
A--2-2--2-2-2---4-4--4-4-4---6-6--6-6-6---2-2--2-2-2-----|
D---------------4-4--4-4-4---6-6--6-6-6---2-2--2-2-2-----|
   x x  x x x   x x  x x x   x x  x x x   x x  x x x

"If you didn't know, you're the only thing that's on my mind"
e--------------------------------------------------------|
B--------------------------------------------------------|
G--4-----------------------------------------------------|(Play Twice)
D--4-(X4)--4-------6-------2-----------------------------|
A--2-------4-(X4)--6-(X4)--2--(X4)-----------------------|
D----------4-------6------ 2-----------------------------|
   x       x       x       x


"Looking in your eyes while you walk the other side"
e---------------------------------------------------------|
B---------------------------------------------------------|
G--4------------------------------------------------------|(Play Twice, and let ring)
D--4-(X2)--4-------6-------2------------------------------|
A--2-------4-(X2)--6-(X2)--2--(X2)------------------------|
D----------4-------6------ 2------------------------------|

CHORUS
"I wanna make love in this club"
e--------------------------------------------------------|
B--------------------------------------------------------|
G--4-----------------------------------------------------|(Play Twice)
D--4-(X8)--4-------6-------2-----------------------------|
A--2-------4-(X8)--6-(X8)--2--(X8)-----------------------|
D----------4-------6------ 2-----------------------------|


Verse 3
"I'm what you want, I'm what you need"
e---------------------------------------------------------|
B---------------------------------------------------------|
G--4~-----------------------------------------------------|(Play Twice)
D--4~---4~-----6~-----2~----------------------------------|
A--2~---4~-----6~-----2~----------------------------------|
D-------4~-----6~-----2~----------------------------------|

Bridge
"Have you ever made love yo a thug"
e---------------------------------------------------------|
B---------------------------------------------------------|
G----------4----------------------------------------------|(Play Twice)
D--6-------4-(X4)--4-------2------------------------------|
A--6-(X4)--2-------4-(X4)--2-(X4)-------------------------|
D--6---------------4------ 2------------------------------|

CHORUS
"I wanna make love in this club"
e--------------------------------------------------------|
B--------------------------------------------------------|
G--4-----------------------------------------------------|(Play Twice)
D--4-(X8)--4-------6-------2-----------------------------|
A--2-------4-(X8)--6-(X8)--2--(X8)-----------------------|
D----------4-------6------ 2-----------------------------|


OUTRO (Same as Intro. Play it twice. But the second time through let the last note ring out)
e-----------------------------------------------------------------|
B-----------------------------------------------------------------|
G-4------6------8----- 11------13-------11------9-------8---------|
D-x-(X6)-x-(X1)-x-(X6)-x--(X1)-x--(X6)--x--(X1)-x--(X6)-x-(X1)----|
A-2------4------6------9-------11-------9-------7-------6---------|
D-----------------------------------------------------------------|


End of an awesome song.
            
Hard to play? Try these video lessons and learn fast. | Correct




comments powered by Disqus
↑ Back to top | Tablatures and chords are parodies/interpretations of the original songs. You may use it for private study, scholarship, research or language learning purposes only