» » »

The Summer Set, Lights Tabs (ver.1)

Artists:  A B C D E F G H I J K L M N O P Q R S T U V W X Y Z # 

Lights Tabs (ver.1)

The Summer Set Tabs
 Rating:
4/5 (4 votes)
Lights lessons Tabs too difficult? Try these video lessons and learn fast
1
                -------------------------------------------------------------------------------
-------------------------------------------------------------------------------

Tuning: Drop D

Strumming isn't approximate, missing a few parts I know.

Intro
Guitar 1 & 2:
e|---------------------------------------------------------------------------|
B|---------------------------------------------------------------------------|
G|99999----------999999----------66666-4-22222-44444-------------------------|
D|99999-9-777777-999999-9-777777-66666-4-22222-44444-------------------------|
A|77777-9-777777-777777-9-777777-44444-2-00000-22222-------------------------|
D|------9-777777--------9-777777---------------------------------------------|

Verse:
Guitar 1:
e|---------------------------------------------------------------------------|
B|---------------------------------------------------------------------------|
G|99999---------99999--------------------------------------------------------|
D|99999-9-77777-99999-9-77777------------------------------------------------|
A|77777-9-77777-77777-9-77777------------------------------------------------|
D|------9-77777-------9-77777------------------------------------------------|

This is really odd timing try to figure it out.

Guitar 2:
e|000000-0--0--0--0--0--0--000000--------------------------------------------|
B|555555-12-12-12-10-10-10-999999--------------------------------------------|
G|---------------------------------------------------------------------------|
D|---------------------------------------------------------------------------|
A|---------------------------------------------------------------------------|
D|---------------------------------------------------------------------------|

Pre Chorus
Guitar 1 & 2:
e|---------------------------------------------------------------------------|
B|---------------------------------------------------------------------------|
G|---------------------------------------------------------------------------|
D|999999999--77777777--------------------------------------------------------|
A|999999999--77777777--------------------------------------------------------|
D|999999999--77777777--------------------------------------------------------|

Chorus
Guitar 1 & 2:
e|---------------------------------------------------------------------------|
B|---------------------------------------------------------------------------|
G|9999999--------------------------------------------------------------------|
D|9999999-9999999-7777777----------------------------------------------------|
A|7777777-9999999-7777777----------------------------------------------------|
D|--------9999999-7777777----------------------------------------------------|

Interlude 
Guitar 1 & 2:
e|---------------------------------------------------------------------------|
B|---------------------------------------------------------------------------|
G|99999----------999999------------------------------------------------------|
D|99999-9-777777-999999-9-777777---------------------------------------------|
A|77777-9-777777-777777-9-777777---------------------------------------------|
D|------9-777777--------9-777777---------------------------------------------|

Strumming's a little tricky right here, its sort of faint so listen carefully.

Verse
Guitar 1:
e|---------------------------------------------------------------------------|
B|---------------------------------------------------------------------------|
G|--------99999-------99999--------------------------------------------------|
D|2-7-2-7-99999-77777-99999-77777--------------------------------------------|
A|2-7-2-7-77777-77777-77777-77777--------------------------------------------|
D|2-7-2-7-------77777-------77777--------------------------------------------|
Guitar 2:
e|-------------------12------------------------------------------------------|
B|-------------------X-------------------------------------------------------|
G|-------------------9-------------------------------------------------------|
D|--9h11----9h11p9-----------------------------------------------------------|
A|11------11------11---------------------------------------------------------|
D|---------------------------------------------------------------------------|
Pre Chorus
Guitar 1 & 2:
e|---------------------------------------------------------------------------|
B|---------------------------------------------------------------------------|
G|---------------------------------------------------------------------------|
D|999999999--77777777--------------------------------------------------------|
A|999999999--77777777--------------------------------------------------------|
D|999999999--77777777--------------------------------------------------------|
Chorus
Guitar 1 & 2:
e|---------------------------------------------------------------------------|
B|---------------------------------------------------------------------------|
G|9999999--------------------------------------------------------------------|
D|9999999-9999999-7777777----------------------------------------------------|
A|7777777-9999999-7777777----------------------------------------------------|
D|--------9999999-7777777----------------------------------------------------|

Bridge
Guitar 1:
e|---------------------------------------------------------------------------|
B|---------------------------------------------------------------------------|
G|---------------------------------------------------------------------------|
D|2-7-2-7--------------------------------------------------------------------|
A|2-7-2-7--------------------------------------------------------------------|
D|2-7-2-7--------------------------------------------------------------------|
Guitar 2:
e|---------------------------------------------------------------------------|
B|---------------------------------------------------------------------------|
G|---------------------------------------------------------------------------|
D|--9h11----9h11p9-----------------------------------------------------------|
A|11------11------11---------------------------------------------------------|
D|---------------------------------------------------------------------------|

Chorus
Guitar 1:
e|---------------------------------------------------------------------------|
B|---------------------------------------------------------------------------|
G|9999999--------------------------------------------------------------------|
D|9999999-9999999-7777777----------------------------------------------------|
A|7777777-9999999-7777777----------------------------------------------------|
D|--------9999999-7777777----------------------------------------------------|
Guitar 2:
e|12-------------------------------------------------------------------------|
B|X--------------------------------------------------------------------------|
G|9--------------------------------------------------------------------------|
D|---------------------------------------------------------------------------|
A|---------------------------------------------------------------------------|
D|---------------------------------------------------------------------------|

Outro 
Guitar 1 & 2:
e|---------------------------------------------------------------------------|
B|---------------------------------------------------------------------------|
G|99999---------99999--------------------------------------------------------|
D|99999-9-77777-99999-9-77777------------------------------------------------|
A|77777-9-77777-77777-9-77777------------------------------------------------|
D|------9-77777-------9-77777------------------------------------------------|

| /  slide up
| \  slide down
| h  hammer-on
| p  pull-off
| ~  vibrato
| +  harmonic
| x  Mute note
===============================================================================
            
Submit corrections

comments powered by Disqus
↑ Back to top | The Summer Set Tabs for Lights. Lyrics for acoustic guitar and electric guitar. 1 Tablatures and chords are parodies/interpretations of the original songs. You may use it for private study, scholarship, research or language learning purposes only