>
 >
Do You Remember

Do You Remember Guitar Tabs

The Summer Obsession - Do You Remember chords, tabs, tablatures, lyrics

Guitar lessons | Add/correct | Request | Top 50 tabs Artists:  A B C D E F G H I J K L M N O P Q R S T U V W X Y Z 0-9

Do You Remember Guitar Tabs – The Summer Obsession

CD, Sheet music, Poster

Do you like Do You Remember? Share with your friends now
Tabs
----------------------------------------------------------------------------
              THE SUMMER OBSESSION - DO YOU REMEMBER
----------------------------------------------------------------------------


Tuning: normal

If you want to listen the song to have the Rhythm, go on 
. (I'm french so I'm not specially perfect in english and I'm 14 years old)

Explanations at the end:

          First Intro (guitar 2)
e|66666666-66666666-66666666-66666666-----|
B|----------------------------------------|
G|----------------------------------------|
D|----------------------------------------|
A|----------------------------------------|
E|----------------------------------------|

            Intro (guitar 2)
e|--------------------------------------------------------------------|
B|--------------------------------------------------------------------|
G|8-888-88-8-88888-5-555-55-5-55555------------------3-333-33-33333-8-|
D|8-888-88-8-88888-5-555-55-5-55555-6-666-66-6-66666-3-333-33-33333-8-|
A|6-666-66-6-66666-3-333-33-3-33333-6-666-66-6-66666-1-111-11-11111-6-|
E|----------------------------------4-444-44-4-44444------------------|

Intro (guitar 1, in the same time of Intro guitar 1)
e|------------------------------------------|
B|------------------------------------------|
G|-13-12-8-13-12-8-13-12------10-8-3-10-7-9-|
D|-xx-xx-x-xx-xx-x-xx-xx--x3--xx-x-x-xx-x-x-|
A|-11-10-6-11-10-6-11-10------08-6-1-08-5-7-|
E|------------------------------------------|

Pause, the "before chorus" begins when the 2st singer/guitarist 1 says "I know those 
aint from falling down ".

        Before Chorus (guitar 1)
e|-----------------------------------------|
B|-----------8---------------------8-------|
G|---8---8-----10-8--------8---8-----10----|
D|-8---8---8---------x2--8---8---8---------|
A|-----------------------------------------|
E|-----------------------------------------|

End of Chorus (guitar 2)
e|---|
B|---|
G|---|
D|-8-|
A|-8-|
E|-6-|

         Chorus (guitar 1)
e|--------------------------------------------------------------------|
B|--------------------------------------------------------------------|
G|8-888-88-8-88888-5-555-55-5-55555------------------3-333-33-33333-8-|
D|8-888-88-8-88888-5-555-55-5-55555-6-666-66-6-66666-3-333-33-33333-8-|
A|6-666-66-6-66666-3-333-33-3-33333-6-666-66-6-66666-1-111-11-11111-6-| x2
E|----------------------------------4-444-44-4-44444------------------|

Pause, the "before chorus" begins when the 2st singer/guitarist 1 says "I know those 
aint from falling down ".

        Before Chorus (guitar 1)
e|-----------------------------------------|
B|-----------8---------------------8-------|
G|---8---8-----10-8--------8---8-----10----|
D|-8---8---8---------x2--8---8---8---------|
A|-----------------------------------------|
E|-----------------------------------------|

End of Chorus (guitar 2)
e|---|
B|---|
G|---|
D|-8-|
A|-8-|
E|-6-|

       Chorus 2 (guitar 1)
e|--------------------------------------------------------------------|
B|--------------------------------------------------------------------|
G|8-888-88-8-88888-5-555-55-5-55555------------------3-333-33-33333---|
D|8-888-88-8-88888-5-555-55-5-55555-6-666-66-6-66666-3-333-33-33333---|
A|6-666-66-6-66666-3-333-33-3-33333-6-666-66-6-66666-1-111-11-11111---| x2
E|----------------------------------4-444-44-4-44444------------------|

After Chorus 2: (guitar 1)

e|-----------------------------------------------------------------|
B|-----------------------------------------------------------------|
G|--------------------------------------------------------33333333-|
D|xxxx-5-xxxx-6--33333333-66666666-xxxx-5-xxxx-6-33333333-33333333-|
A|xxxx-5-xxxx-6--33333333-66666666-xxxx-5-xxxx-6-33333333-11111111-|
E|xxxx-3-xxxx-4--11111111-44444444-xxxx-3-xxxx-4-11111111----------|

Pause, begin "Intro 2" when the 2st singer/guitarist 1 says "we can go whenever you let go".

Intro 2 (guitar 1)
e|66666666-66666666-66666666-66666666-----|
B|----------------------------------------|
G|----------------------------------------|
D|----------------------------------------|
A|----------------------------------------|
E|----------------------------------------|

Chorus final part1 (guitar 1)
e|--------------------------------------------------------------------|
B|--------------------------------------------------------------------|
G|8-888-88-8-88888-5-555-55-5-55555------------------3-333-33-33333---|
D|8-888-88-8-88888-5-555-55-5-55555-6-666-66-6-66666-3-333-33-33333---|
A|6-666-66-6-66666-3-333-33-3-33333-6-666-66-6-66666-1-111-11-11111---|
E|----------------------------------4-444-44-4-44444------------------|

Chorus final part 2 with a small modification (guitar 1)
e|---------------------------------------------------------------------|
B|---------------------------------------------------------------------|
G|8-888-88-8-8888-7-5-555-55-5-55555------------------3-333-33-33333---|
D|8-888-88-8-8888-7-5-555-55-5-55555-6-666-66-6-66666-3-333-33-33333---|
A|6-666-66-6-6666-5-3-333-33-3-33333-6-666-66-6-66666-1-111-11-11111---|
E|-----------------------------------4-444-44-4-44444------------------|

Chorus final part 3 (guitar 1)
e|--------------------------------------------------------------------|
B|--------------------------------------------------------------------|
G|8-888-88-8-88888-5-555-55-5-55555------------------3-333-33-33333---|
D|8-888-88-8-88888-5-555-55-5-55555-6-666-66-6-66666-3-333-33-33333---|
A|6-666-66-6-66666-3-333-33-3-33333-6-666-66-6-66666-1-111-11-11111---| x2
E|----------------------------------4-444-44-4-44444------------------|

Chorus final part end (guitar 1)
e|------------------------------------------------------------|
B|------------------------------------------------------------|
G|8-888-88-8-88888-5-555-55-5-55555------------------33333333-|
D|8-888-88-8-88888-5-555-55-5-55555-6-666-66-6-66666-33333333-|
A|6-666-66-6-66666-3-333-33-3-33333-6-666-66-6-66666-11111111-|
E|----------------------------------4-444-44-4-44444----------|

Chorus final (guitar 1 begins when the 2nd starts the "Chorus final part 3")
e|---------------------------|
B|---------------------------|
G|-13-12-8-13-12-8-13-12-----|
D|-xx-xx-x-xx-xx-x-xx-xx-----|
A|-11-10-6-11-10-6-11-10-----| x12
E|---------------------------|


                           -THE END-


Explanations: guitar 1 & 2 on distortion.

x: mute (Block the rope with the finger wich is on the A rope)





Comments


Popular The Summer Obsession tabs & chords
Down For Whatever Chords
Melt The Sugar Chords
8am Tabs
Death Said Tabs
Down For Whatever Intro Tabs
I Miss You Tabs
Melt The Sugar Tabs
Never Coming Back Intro Tabs
Down For Whatever Ukulele
Melt The Sugar Ukulele


Song lyrics



↑ Back to top | Tablatures and chords are parodies/interpretations of the original songs. You may use it for private study, scholarship, research or language learning purposes only
© 2014 AZChords.com Contact us | Privacy policy | DMCA | Add/correct tabs | Request tabs | Top 50 tabs