>
 >
Disappear

Disappear Guitar Tabs

The Summer Obsession - Disappear chords, tabs, tablatures, lyrics

Guitar lessons | Add/correct | Request | Top 50 tabs Artists:  A B C D E F G H I J K L M N O P Q R S T U V W X Y Z 0-9

Disappear Guitar Tabs – The Summer Obsession

CD, Sheet music, Poster

Do you like Disappear? Share with your friends now
Tabs
---------------------------------------------------------------
-----------------------------------------------------------------

Tuning: Standard

Main Riff:
e|------------------------------------------|
B|-6-6-5-6-6-6-5-6-6-6-5-6-8-6-5------------|
G|-------------------------------5----------|
D|----------------------------------(X3)----|
A|------------------------------------------|
E|------------------------------------------|

e|------------------------------------------|
B|-6-6-5-6-6-6-5-6--------------------------|
G|------------------------------------------|
D|------------------------------------------|
A|------------------------------------------|
E|------------------------------------------|

Intro:
e|------------------------------------------|
B|------------------------------------------|
G|--------3333--5555--3333------------------|
D|--3333--3333--5555--3333—(X2)-------------|
A|--3333--1111--3333--1111------------------|
E|--1111------------------------------------|

e|------------------------------------------|
B|------------------------------------------|
G|--------3333--10101010--5555--3-----------|
D|--3333--3333--10101010--5555--3-----------|
A|--3333--1111--8-8-8-8---3333--1-----------|
E|--1111------------------------------------|

Verse: (Just Bass)
“I’m trapped in a world....”

Pre-Chorus:
e|------------------------------------------|
B|------------------------------------------|
G|------1010--------------------------------|
D|--55--1010--88-8888-----------------------|
A|--55--8-8---88-8888-----------------------|
E|--33--------66-6666-----------------------|
“Please come and rescue me....”

Chorus:
e|------------------------------------------|
B|------------------------------------------|
G|--------3333--5555--3333------------------|
D|--3333--3333--5555--3333—(X2)-------------|
A|--3333--1111--3333--1111------------------|
E|--1111------------------------------------|
“I just wish that I could....”

e|------------------------------------------|
B|------------------------------------------|
G|--------3333--10101010--5555--3-----------|
D|--3333--3333--10101010--5555--3-----------|
A|--3333--1111--8-8-8-8---3333--1-----------|
E|--1111------------------------------------|
“Do you suppose theres more....”

-Then Verse
-Then Pre-Chorus
-Then Chorus

Interlude:
e|-----------------------------------------------|
B|-----------------------------------------------|
G|------------33333333------------55555555-------|
D|--55555555--33333333--33333333--55555555—(X2)--|
A|--55555555--11111111--33333333--33333333-------|
E|--33333333------------11111111-----------------|
“And I don’t wanna be blind....”

-Then Verse (Bass)
-Then Pre-Chorus
-Then Chorus (X2)

Outro:
e|------------------------------------------|
B|------------------------------------------|
G|------33--55------------------------------|
D|--33--33--55------------------------------|
A|--33--11--33------------------------------|
E|--11--------------------------------------|
“I just wish that I could disappear”





Comments


Popular The Summer Obsession tabs & chords
Down For Whatever Chords
8am Tabs
Death Said Tabs
Do You Remember Tabs
Down For Whatever Intro Tabs
I Miss You Tabs
Melt The Sugar Tabs
Never Coming Back Intro Tabs
Down For Whatever Ukulele
Melt The Sugar Ukulele


Song lyrics



↑ Back to top | Tablatures and chords are parodies/interpretations of the original songs. You may use it for private study, scholarship, research or language learning purposes only
© 2014 AZChords.com Contact us | Privacy policy | DMCA | Add/correct tabs | Request tabs | Top 50 tabs