>
 >
Spark Fires

Spark Fires Guitar Tabs

The Story So Far - Spark Fires chords, tabs, tablatures, lyrics

Guitar lessons | Add/correct | Request | Top 50 tabs Artists:  A B C D E F G H I J K L M N O P Q R S T U V W X Y Z 0-9

Spark Fires Guitar Tabs – The Story So Far

CD, Sheet music, Poster

Do you like Spark Fires? Share with your friends now
Tabs
-------------------------------------------------------------------------------------------|
-------------------------------------------------------------------------------------------|



Tuning: Standard

Intro:

E|-------------------------------------|
B|-------------------------------------|
G|--6-6-x6---------xx-6-1010-6--1010~--|
D|--6-6-x4-4-4-x4--xx-x--xxx-x--xxxx~--|
A|--4-4-x4-4-4-x4--xx-4-/888-4-/8888~--|
E|---------2-2-x2----------------------|

E|-------------------------------------|
B|-------------------------------------|
G|--6-6-x6---------xx-6-1010-6x--6-8---|
D|--6-6-x4-4-4-x4--xx-x--xxx-xx--x-x---|
A|--4-4-x4-4-4-x4--xx-4-/888-4x--4/6---|
E|---------2-2-x2----------------------|

E|----------------------------------------|
B|----------------------------------------|
G|-1010-x-10-x-1010-x-10-6--1010-6--1010--|
D|--x-x-x--x-x-x-x--x-x--x--xxxx-x--xxxx--|
A|--8-8-x--8-x-8-8--x-8--4-/8888-4-/8888--|
E|----------------------------------------|

E|----------------------------------------|
B|----------------------------------------|
G|-1010-x-11-101010-x-8--6--1010-6-10-8---|
D|--x-x-x--x-x-x-x--x-x--x--xxxx-x--x-x---|
A|--8-8-x--9-8-8-8--x-6--4-/8888-4-/8-6---|
E|----------------------------------------|



Verse:


     “Who knows how much is left?”

E|------------------------------------------|
B|------------------------------------------|
G|--8--10------8-----6----------------------|
D|--x---x(x16)-x(x8)-x(x8)-8-------6--------|
A|--6/--8------6-----4-----8-(x16)-6-(x16)--|
E|-------------------------6-------4--------|


“I can stand beside my friends…”

E|-------------------------------------|
B|-------------------------------------|
G|-------------------------------------|
D|--4--------8-------66666666-xx-xx-6--|
A|--4-(x32)--8-(x16)-66666666-xx-xx-6--|
E|--2--------6-------44444444-xx-xx-4--|



“Keep myself sane”

E|---------------------|
B|---------------------|
G|---------------------|
D|--4-------4--4--4-4--|
A|--4-(x16)-4--4--4-4--|
E|--2-------2--2--2\1--|


“And maybe when I’m older…”

E|---------------------------------------------------------------|
B|---------------------------------------------------------------|
G|---------------------------------------------------------------|
D|--6-------8-------666-44444444-4-44444444-4-4444444-4-4444444--|
A|--6-(x16)-8-(x16)-666-44444444-4-44444444-4-4444444-4-4444444--|
E|--4-------6-------444-22222222\1/22222222\1/2222222\1/2222222--| x2


Pre-chorus:

E|---------------------------------------|
B|---------------------------------------|
G|--8-8--6-8-1010-666-8-8-6-8-10--1313---|
D|--x-x--x-x-xxx--xxx-x-x-x-x-xx---x-x---|
A|--6-6--4/6-888--444-6-6—4/6-88-/1111---|
E|---------------------------------------|

E|---------------------------------------|
B|---------------------------------------|
G|--8-8--6-8-1010-666--8-xxxxx-6-xxxxx---|
D|--x-x--x-x-xxx--xxx--x-xxxxx-x-xxxxx---|
A|--6-6--4/6-888--444--6-xxxxx-4-xxxxx---|
E|---------------------------------------|


Chorus:

E|--------------------------------------|
B|--------------------------------------|
G|--66666666----------------------------|
D|--66666666-444-444--8888888-444-4-6---|
A|--44444444-444-444--8888888-444-4-6---|
E|-----------111/222--6666666-111/2-4---| x4


Post-chorus:

E|---------------------|
B|---------------------|
G|---------------------|
D|--8~----6~----4~-----|
A|--8~----6~----4~-----|
E|--6~----4~----2~-----| x2


Bridge:

E|--------------------------------------------|
B|--------------------------------------------|
G|--6-------8-------66-88-10-------13---------|
D|--x-(x16)-x-(x12)-xx-xx--x-(x16)--x-(x16)---|
A|--4-------6-------44-66--8------/11---------|
E|--------------------------------------------| x2

E|---------------|
B|---------------|
G|---------------|
D|--4~~--x4-4~~--|
A|--4~~--x4-4~~--|
E|--2~~--x1-2~~--| x4

E|----------------------------------|
B|----------------------------------|
G|----------------------------------|
D|-44-44-4x--------8888888-6666666--|
A|-44-44-4x--------8888888-6666666--|
E|-22-11/2x--------6666666-4444444--|

E|----------xx-xx-------------------|
B|----------xx-xx-------------------|
G|----------xx-xx-------------------|
D|-44-44-4x-xx-xx--8888888-6666666--|
A|-44-44-4x-xx-xx--8888888-6666666--|
E|-22-11/2x-xx-xx--6666666-4444444--|

E|-----------------------------------------------|
B|------------9b^--------------------------------|
G|-----------10b10b-8----------8p6h8b------9b^---|
D|-44-44-4x-----------11-8-11b--------10b^10b^---|
A|-44-44-4x--------------------------------------|
E|-22-11/2x--------------------------------------|

E|----------------------------------|
B|----------------------------------|
G|----------------------------------|
D|-44-44-4x--------8888888-6666666--|
A|-44-44-4x--------8888888-6666666--|
E|-22-11/2x--------6666666-4444444--|


“Whoaaaaaa”

E|--------|
B|--------|
G|--6~~~--|
D|--6~~~--|
A|--4~~~--|
E|--------|


Chorus:

E|--------------------------------------|
B|--------------------------------------|
G|--66666666----------------------------|
D|--66666666-444-444--8888888-444-4-6---|
A|--44444444-444-444--8888888-444-4-6---|
E|-----------111/222--6666666-111/2-4---| x4


“Look in the mirror”

E|--------------|
B|--------------|
G|--------------|
D|--8-8---4-4---|
A|--8-8---4-4---|
E|--6-6---2-2---|


Intro thing again:

E|----------------------------------------|
B|----------------------------------------|
G|-1010-x-10-x-1010-x-10-6--1010-6--1010--|
D|--x-x-x--x-x-x-x--x-x--x--xxxx-x--xxxx--|
A|--8-8-x--8-x-8-8--x-8--4-/8888-4-/8888--|
E|----------------------------------------|

E|----------------------------------------|
B|----------------------------------------|
G|-1010-x-11-101010-x-8--6--1010-6-10-8---|
D|--x-x-x--x-x-x-x--x-x--x--xxxx-x--x-x---|
A|--8-8-x--9-8-8-8--x-6--4-/8888-4-/8-6---|
E|----------------------------------------|


End:

E|------------|
B|------------|
G|--8--10~~~--|
D|--x---x~~~--|
A|--6/--8~~~--|
E|------------|





Comments


Popular The Story So Far tabs & chords
States And Minds Bass Tabs
Daughters Chords
The Glass Chords
680 South 2 Tabs
Closure Tabs
Face Value Tabs
Framework Tabs
Roam Tabs
Small Talk Tabs
Daughters Ukulele


Song lyrics



↑ Back to top | Tablatures and chords are parodies/interpretations of the original songs. You may use it for private study, scholarship, research or language learning purposes only
© 2014 AZChords.com Contact us | Privacy policy | DMCA | Add/correct tabs | Request tabs | Top 50 tabs