» » »

The Story So Far, Rally Cap Tabs (ver.1)

Artists:  A B C D E F G H I J K L M N O P Q R S T U V W X Y Z # 

Rally Cap Tabs (ver.1)

The Story So Far Tabs
Rating:
5/5 (1 vote)
Rally Cap lessons Tabs too difficult? Try these video lessons and learn fast
                -----------------------------------------------------------------------------
-----------------------------------------------------------------------------



Tuning: Standard


Intro:

E|-----------------------------------------------|
B|-----------------------------------------------|
G|--444--------444--------444--------------------|
D|--444-22222--444-22222--444-22222--6666-22222--|
A|--222-22222--222-22222--222-22222--6666-22222--|
E|------00000------00000------00000--4444-00000--|

Verse:

E|-----------------------------------------------|
B|-----------------------------------------------|
G|--444--------444--------444--------------------|
D|--444-22222--444-22222--444-22222--6666-22222--|
A|--222-22222--222-22222--222-22222--6666-22222--|
E|------00000------00000------00000--4444-00000--| x4


“I’ve got nothing in common…”

E|----------------------------------------------------------|
B|----------------------------------------------------------|
G|--11111--88888--11-8-6-6666--8--6--4-4444--8--6--4-4444---|
D|---xxxx--xxxxx---x-x-x-xxxx--x--x--x-xxxx--x--x--x-xxxx---|
A|---9999-\66666---9/6/4-4444--6-/4-/2-2222--6-/4-/2-2222---|
E|----------------------------------------------------------| x2


“I don’t have any place to stay..”

E|------------------------------------------------|
B|------------------------------------------------|
G|------------------------------------------------|
D|--6-6-66~~--6-6-66~~--(4)--2-2-22~~--2-2-22~~---|
A|--6-6-66~~--6-6-66~~--(4)--2-2-22~~--2-2-22~~---|
E|--4-4-44~~--4-4-44~~--(2)--0-0-00~~--0-0-00~~---| x2

E|--------------------------------------|
B|--------------------------------------|
G|--------------------------------------|
D|--6666666666666666--222222222222222---|
A|--6666666666666666--222222222222222---|
E|--4444444444444444--000000000000000---| x2
    xxxxxxxxxxxxxxxx  xxxxxxxxxxxxxxx


Verse:

E|-----------------------------------------------|
B|-----------------------------------------------|
G|--444--------444--------444--------------------|
D|--444-22222--444-22222--444-22222--6666-22222--|
A|--222-22222--222-22222--222-22222--6666-22222--|
E|------00000------00000------00000--4444-00000--|


“I’ve got nothing in common…”

E|----------------------------------------------------------|
B|----------------------------------------------------------|
G|--11111--88888--11-8-6-6666--8--6--4-4444--8--6--4-4444---|
D|---xxxx--xxxxx---x-x-x-xxxx--x--x--x-xxxx--x--x--x-xxxx---|
A|---9999-\66666---9/6/4-4444--6-/4-/2-2222--6-/4-/2-2222---|
E|----------------------------------------------------------| x2


“Self medicate cause I'm sick...”

E|------------------------------------------|
B|------------------------------------------|
G|--1111--8~--11-8-6~---8--6--4~--6--6--4~--|
D|---x-x--x----x-x-x----x--x--x---x--x--x---|
A|---9-9-\6~---9/6/4~---6-/4-/2~--6-/4-/2~--|
E|------------------------------------------| x2
            

comments powered by Disqus
↑ Back to top | The Story So Far Tabs for Rally Cap. Lyrics for acoustic guitar and electric guitar. Tablatures and chords are parodies/interpretations of the original songs. You may use it for private study, scholarship, research or language learning purposes only