» » »

The Story So Far, Brevity Tabs (ver.1)

Artists:  A B C D E F G H I J K L M N O P Q R S T U V W X Y Z # 

Brevity Tabs (ver.1)

The Story So Far Tabs
 Rating:
4.3/5 (6 votes)
Brevity lessons Tabs too difficult? Try these video lessons and learn fast
1
                ----------------------------------------------------------------------------
-----------------------------------------------------------------------------




Tuning: Standard


ā€œIā€™m an evil mothaf**ka, Joe. Yaknow that?ā€

Intro:


Guitar 1:

E|----------------------------------|
B|----------------------------------|
G|----------------------------------|
D|-2-2~~~------x-x--------x-x-2~~~--|
A|-2-2~~~------x-x--------x-x-2~~~--|
E|-0-0~~~------x-x--------x-x-0~~~--|

E|-----------------------------|
B|-----------------------------|
G|-----------------------------|
D|-2~~~-------------------2-2--|
A|-2~~~----*Pickslide*----2-2--|
E|-0~~~-------------------0-0--|


Guitar 2:

E|-000--0-0-0-000-000--|
B|-999/121212\555/777--|
G|---------------------|
D|---------------------|
A|---------------------|
E|---------------------|


Verse:

Both Guitars:

E|-----------------------------------|
B|-----------------------------------|
G|----------------------4444444444---|
D|--77777777777-2222222-4444444444---|
A|--77777777777-2222222-2222222222---|
E|--55555555555-0000000--------------|


End: 

E|--------|
B|--------|
G|--------|
D|--7~~~--|
A|--7~~~--|
E|--5~~~--|
            
Submit corrections

comments powered by Disqus
↑ Back to top | The Story So Far Tabs for Brevity. Lyrics for acoustic guitar and electric guitar. 1 Tablatures and chords are parodies/interpretations of the original songs. You may use it for private study, scholarship, research or language learning purposes only