» » »

The Sounds, Rock N Roll Tabs (ver.1)

Artists:  A B C D E F G H I J K L M N O P Q R S T U V W X Y Z # 

Rock N Roll Tabs (ver.1)

The Sounds Tabs
 Rating:
4/5 (7 votes)
Rock N Roll lessons Tabs too difficult? Try these video lessons and learn fast
1
                Band: The Sounds

Tuning: Standard
Clean, set tone to 4 for best sound

Weird Noises (Synthesysers)
Intro: Guitar 1

e|-------------------------------|
B|-------------------------------|
G|-------------------------------|
D|----------4---4---6-----4-4----| (4X)
A|--4h6-6-6---6---6---4-4-----4--|
E|-------------------------------|

Verse: Guitar 1
Palm Muted

e|--------------------------------------------------------------------|
B|--------------------------------------------------------------------|
G|--------------------------------------------------------------------|
D|--------------------------------------------------------------------|
A|--4444444444444444444444444444444466666666666666664444444444444444--|
E|--------------------------------------------------------------------|

Chorus: Guitar 1

e|-------------------------------|        
B|-------------------------------|        
G|-------------------------------|        
D|----------4---4---6-----4-4----| (3X)   
A|--4h6-6-6---6---6---4-4-----4--|        
E|-------------------------------|        

|--------------------------------------------|
|--------------------------------------------|
|--------------------------------------------|
|--44444444-6-66666--4-6----6/9--------------|
|--44444444-6-66666--4/6----6/9--------------|
|--------------------------------------------|

Verse: Guitar 1
Palm Muted

e|--------------------------------------------------------------------|
B|--------------------------------------------------------------------|
G|--------------------------------------------------------------------|
D|--------------------------------------------------------------------|
A|--4444444444444444444444444444444466666666666666664444444444444444--|
E|--------------------------------------------------------------------|

Chorus: Guitar 1

e|-------------------------------|        
B|-------------------------------|       
G|-------------------------------|        
D|----------4---4---6-----4-4----| (3X)   
A|--4h6-6-6---6---6---4-4-----4--|        
E|-------------------------------|        

|--------------------------------------------|
|--------------------------------------------|
|--------------------------------------------|
|--44444444-6-66666----4----4----------------|
|--44444444-6-66666----4----4----------------|
|--------------------------------------------|


e|---------------------------------------------------------------------------|
B|---------------------------------------------------------------------------|
G|---------------------------------------------------------------------------|
D|---4-------4--1-----4--------4/9------8-----6------11/13-------------------|
A|-----------------------4---------------------------------------------------|
E|---------------------------------------------------------------------------|

This Part Gets Weird, Can't Figure It Out

e|---------------------------------------------------------------------------|
B|---------------------------------------------------------------------------|
G|---------------------------------------------------------------------------|
D|---------------------------------------------------------------------------|
A|---------------------------------------------------------------------------|
E|---------------------------------------------------------------------------|

Chorus: Guitar 1

e|-------------------------------|        |---------------------|
B|-------------------------------|        |---------------------|
G|-------------------------------|        |---------------------|
D|----------4---4---6-----4-4----| (3X)   |--44444444-6-66666---|
A|--4h6-6-6---6---6---4-4-----4--|        |--44444444-6-66666---|
E|-------------------------------|        |---------------------|

Chorus: Guitar 1

e|-------------------------------|        |---------------------|
B|-------------------------------|        |---------------------|
G|-------------------------------|        |---------------------|
D|----------4---4---6-----4-4----| (3X)   |--44444444-6-66666---|
A|--4h6-6-6---6---6---4-4-----4--|        |--44444444-6-66666---|
E|-------------------------------|        |---------------------|

Ending

e|---------------------------------------------------------------------------|
B|---------------------------------------------------------------------------|
G|---------6-----4-----3-----3-----4-----3-----------------------------------|
D|--3/4-4-----4-----4-----4-----4-----4-----4--------------------------------| (3X)
A|---------------------------------------------------------------------------|
E|---------------------------------------------------------------------------|

e|-------------------------------|
B|-------------------------------| 
G|-------------------------------|
D|----------4---4---6-----4-4----|
A|--4h6-6-6---6---6---4-4-----4--|
E|-------------------------------|

e|---------------------------------------------------------------------------|
B|---------------------------------------------------------------------------|
G|---------6-----4-----3-----3-----4-----3-----------------------------------|
D|--3/4-4-----4-----4-----4-----4-----4-----4--------------------------------| (3X)
A|---------------------------------------------------------------------------|
E|---------------------------------------------------------------------------|

e|-------------------------------|
B|-------------------------------| 
G|-------------------------------|
D|----------4---4---6-----4-4----|
A|--4h6-6-6---6---6---4-4-----4--|
E|-------------------------------|


e|---------------------------------------------------------------------------|
B|---------------------------------------------------------------------------|
G|---------6-----4-----3-----3-----4-----3-----------------------------------|
D|--3/4-4-----4-----4-----4-----4-----4-----4--------------------------------| (3X)
A|---------------------------------------------------------------------------|
E|---------------------------------------------------------------------------|

e|-------------------------------|
B|-------------------------------| 
G|-------------------------------|
D|----------4---4---6-----4-4----|
A|--4h6-6-6---6---6---4-4-----4--|
E|-------------------------------|

e|---------------------------------------------------------------------------|
B|---------------------------------------------------------------------------|
G|---------6-----4-----3-----3-----4-----3-----------------------------------|
D|--3/4-4-----4-----4-----4-----4-----4-----4----4/6------6/8----------------|
A|-----------------------------------------------4/6------6/8----------------|
E|---------------------------------------------------------------------------|

Any Questions? Any Corrections? Request a Tab? Email Above
            
Submit corrections

comments powered by Disqus
↑ Back to top | The Sounds Tabs for Rock N Roll. Lyrics for acoustic guitar and electric guitar. 1 Tablatures and chords are parodies/interpretations of the original songs. You may use it for private study, scholarship, research or language learning purposes only