» » »

The Sound Of Animals Fighting, Uzbekistan Bass tabs (ver.1)

Artists:  A B C D E F G H I J K L M N O P Q R S T U V W X Y Z # 

Uzbekistan Bass tabs (ver.1)

The Sound Of Animals Fighting Tabs
 Rating:
4/5 (4 votes)
Uzbekistan lessons Tabs too difficult? Try these video lessons and learn fast
1
                Thes Sound of Animals Fighting
Uzbekistan bass tab

Hey i learnt this by ear.
bass tab, on my 5 string bass.
Definitely not right, but it sounds ok and its fun to play.

[1:36-2:37]
E----------------6-----------6----------------6----------6---|
B----------3h5/6-------3h5/6------------3h5/6------3h5/6-----|
F#-7-----4-----------4----------7\----4---------4-4----------|
C#-----------------------------------------------------------|
G#-----------------------------------------------------------|


E------------------------------------------------------------|
B----------------11------------------------11----------------|
F#-7-----8h10/11----11\8-----7-----8h10/11----11\8-----------|
C#-----------------------------------------------------------|
G#-----------------------------------------------------------|

E----------------6-----------6-------------------------------|
B----------3h5/6-------3h5/6-------------------11------------|
F#-------4-----------4--------------7--8h10/11----11\8-------|
C#-----------------------------------------------------------|
G#-----------------------------------------------------------|


ETC...
too lazy to tab more....but come on guys u need to tab more SOAF tabs, mainly from The 
And The Sun.
peace.
            
Submit corrections

comments powered by Disqus
↑ Back to top | The Sound Of Animals Fighting Bass for Uzbekistan. Lyrics for acoustic guitar and electric guitar. 1 Tablatures and chords are parodies/interpretations of the original songs. You may use it for private study, scholarship, research or language learning purposes only