» » »

My Horse Must Lose Bass tabs (ver.1)

Artists:  A B C D E F G H I J K L M N O P Q R S T U V W X Y Z # 

My Horse Must Lose Bass tabs (ver.1)

The Sound Of Animals Fighting
Rating:
5/5 (1 vote)

Hard to play? Try these video lessons and learn fast.
                this tab is pretty simple

and i'm honestly not sure that this is even a bass guitar playing this, it may be 
synth

but it's certainly playable on bass

so here it is

Riff 1


G|----------------------------------|
D|----------------------------------|
A|----------------------------------|
E|--3-3-2/3-/15-15-\3---------------|

Riff 2


G|----------------------------------|
D|------5-------5-------------------|
A|----------------------------------|
E|--3-3---3--33---------------------|

Riff 3


G|----------------------------------|
D|-5-----5-------5------------------|
A|----------------------------------|
E|---3-3---3--33--------------------|

Riff 4


G|-------------------------------------------|
D|----------5------------5-------5---------5-|
A|-------------------------------------------|
E|--3-3-2/3---3-3-3-3-33------33---3-3-3-3---|

Riff 5

G|-------------------------------------------|
D|----------5------------5-------------------|
A|-------------------------------------------|
E|--3-3-2/3---3-3-3-3-33-----------3-3-3-----|

Riff 6


G|-----------------------------------|
D|-----------------------------------|
A|-----------------------------------|
E|--3----3----3----3-----------------| do this until 3:02


Riff 7

G|------------------------------------|
D|------------------------------------|
A|------------------------------------|
E|--3-3-2/3-/15-15-\3----3--3--3--3---|

Riff 8


G|------------------------------------|
D|----------------------------5---5---|
A|------------------------------------|
E|--3-3-2/3-/15-15-\3----3--3---3-----|


Riff 9

G|------------------------------------|
D|--------------5---5-----------------|
A|------------------------------------|
E|--3-3----3-33-----------------------|

Riff 10


G|----------------------------------------------------|
D|------------5-5-------------------------------------|
A|--------------------------------------------10p9h10-|
E|--3-3---3--------8-8-8-88-8-8-10-10-10-1010---------|


and that pretty much covers it

someone

PLEASE

tab some more of their stuff, it would be greatly appreciated

<3
Josh
            
Hard to play? Try these video lessons and learn fast. | Correct




comments powered by Disqus
↑ Back to top | Tablatures and chords are parodies/interpretations of the original songs. You may use it for private study, scholarship, research or language learning purposes only