» » »

Lude Tabs (ver.1)

Artists:  A B C D E F G H I J K L M N O P Q R S T U V W X Y Z # 

Lude Tabs (ver.1)

The Sound Of Animals Fighting
Rating:
2/5 (1 vote)

Hard to play? Try these video lessons and learn fast.
                i'm pretty sure this is 100% right. i haven't played it as a whole yet but it 

|-----------------------------12-------------------------------------|
|-----------12-------10---13----------------12-------10/13--12-------|
|----9/12-------7h8-------------------9/12-------8-------------------|
|-9--------------------------------9---------------------------------|
|--------------------------------------------------------------------|
|--------------------------------------------------------------------|


|-------------------------12---------------------------12------------|
|----------12------10/13------------------12----10/13-----12---------|
|----9/12------8--------------------9/12-----8-----------------------|
|-9------------------------------9-----------------------------------|
|--------------------------------------------------------------------|
|--------------------------------------------------------------------|


|------------------0--------------0----------0---------------12-------12|
|----8-12-8-----8-----8--8/10--10---10----10----10--------12-------12---|
|-9----------9-----------9/11----------11-----------11/12-------12------|
|-----------------------------------------------------------------------|
|-----------------------------------------------------------------------|
|-----------------------------------------------------------------------|


|-------12------12--------0----------0----------0-------0---------------|
|----12------12-----------------------------------------0---------------|
|-11------10----------11----11----11---11----11---11----9---------------|
|------------------10----------10---------10-----------10---------------|
|-----------------------------------------------------------------------|
|-----------------------------------------------------------------------|


|---------------------12--------------------12-------------------------12|
|-------12--------12-------------12--------------------12-----------12---|
|-9-12-----12--8----------8/9-12----12--8--------9-12-----12--9/8--------|
|------------------------------------------------------------------------|
|------------------------------------------------------------------------|
|------------------------------------------------------------------------|


|------------------12----------------------------------------------------|
|------12-------12-------------------------------------------------------|
|-9-12----12-8-----------------------------------------------------------|
|------------------------------------------------------------------------|
|------------------------------------------------------------------------|
|------------------------------------------------------------------------|


and thats it.
            
Hard to play? Try these video lessons and learn fast. | Correct




comments powered by Disqus
↑ Back to top | Tablatures and chords are parodies/interpretations of the original songs. You may use it for private study, scholarship, research or language learning purposes only