» » »

The Sound Of Animals Fighting, I, The Swan Tabs (ver.1)

Artists:  A B C D E F G H I J K L M N O P Q R S T U V W X Y Z # 

I, The Swan Tabs (ver.1)

The Sound Of Animals Fighting Tabs
 Rating:
4/5 (4 votes)
I, The Swan lessons Tabs too difficult? Try these video lessons and learn fast
1
                The Sound Of Animals Fighting


The Ocean and The Sun



Standard Tuning





intro and verse (play 3 times)


|------------------|--------------|
|------------------|--------------|
|------------------|-----5/3------|
|---------8/11/8---|-----------8--|
|------------------|-----------8--|
|-4/6-6-4-6/9/ 6-6-|-1-4-------6--|


|------------------|----------------|
|------------------|----------------|
|------------------|-----5/3----3/1-|
|---------8/11/8---|----------------|
|------------------|----------------|
|-4/6-6-4-6/9/ 6-6-|-1-4------4-----|


|-----------------|
|-----------------|
|-----------------|
|-----------------|
|-----------------|     
|-1-4-6-8-6-4-6-4-|


then (two times clean and two times overdriven)


|-----------------|-----------------|
|-----------------|-----------------|
|-----------------|-----------------|
|-----------------|-----------------|
|---8-------------|-------------1---|
|-6---6-4-6-8-4-1-|-4-6-4-1-4-1-----|


|-----------------|-----------------|
|-----------------|-----------------|
|-----------------|-----------------|
|-----------------|-----------------|
|---8-------------|-----------3-----|
|-6---6-9-8-6-4-1-|-4-6-4-1-4---1---|


after pause until the kids start speaking then (2 times)

                              N.H.
|------------------|--------------|
|------------------|--------------|
|------------------|-----5/3---5--|
|---------8/11/8---|-----------5--|
|------------------|-----------5--|
|-4/6-6-4-6/9/ 6-6-|-1-4----------|


play Verse again : 


|------------------|--------------|
|------------------|--------------|
|------------------|-----5/3------|
|---------8/11/8---|-----------8--|
|------------------|-----------8--|
|-4/6-6-4-6/9/ 6-6-|-1-4-------6--|


|------------------|----------------|
|------------------|----------------|
|------------------|-----5/3----3/1-|
|---------8/11/8---|----------------|
|------------------|----------------|
|-4/6-6-4-6/9/ 6-6-|-1-4------4-----|


|-----------------|
|-----------------|
|-----------------|
|-----------------|
|-----------------|     
|-1-4-6-8-6-4-6-4-|


then (two times clean and two times overdriven)


|-----------------|-----------------|
|-----------------|-----------------|
|-----------------|-----------------|
|-----------------|-----------------|
|---8-------------|-------------1---|
|-6---6-4-6-8-4-1-|-4-6-4-1-4-1-----|


|-----------------|-----------------|
|-----------------|-----------------|
|-----------------|-----------------|
|-----------------|-----------------|
|---8-------------|-----------3-----|
|-6---6-9-8-6-4-1-|-4-6-4-1-4---1---|


then the overdriven part :


|-----------------|
|-----------------|
|-----------------|
|-3-3-3-3-6-6-6-6-|
|-3-3-3-3-6-6-6-6-|
|-1-1-1-1-4-4-4-4-|


|-----------------|-----------------|
|-----------------|-----------------|
|-----------------|-----------------|
|-8-8-8-8-6-6-6-6-|-8-8-8-8-3-3-----|
|-8-8-8-8-6-6-6-6-|-8-8-8-8-3-3-----|
|-6-6-6-6-4-4-4-4-|-6-6-6-6-1-1-----|


|-----------------|-----------------|
|-----------------|-----------------|
|-----------------|-----------------|
|-8-8-8-8-6-6-6-6-|-8-8-8-8-3-3-----|
|-8-8-8-8-6-6-6-6-|-8-8-8-8-3-3-----|
|-6-6-6-6-4-4-4-4-|-6-6-6-6-1-1-----|


|---------------------|---------------------|
|---------------------|---------------------|
|---------------------|---------------------|
|-8-8-8-8-10-10-10-10-|-11-11-11-11-6-6-----|
|-8-8-8-8-10-10-10-10-|-11-11-11-11-6-6-----|
|-6-6-6-6-8--8--8--8--|-9--9--9--9--4-4-----|



|---------------------|---------------------|
|---------------------|---------------------|
|---------------------|---------------------|
|-8-8-8-8-10-10-10-10-|-11-11-11-11-6-6-----|
|-8-8-8-8-10-10-10-10-|-11-11-11-11-6-6-----|
|-6-6-6-6-8--8--8--8--|-9--9--9--9--4-4-----|



listen to the song for the exact order

I didn't tab the part with the narration...so if you want to figure it out yourself...
            
Submit corrections

comments powered by Disqus
↑ Back to top | The Sound Of Animals Fighting Tabs for I, The Swan. Lyrics for acoustic guitar and electric guitar. 1 Tablatures and chords are parodies/interpretations of the original songs. You may use it for private study, scholarship, research or language learning purposes only