» » »

Horses In The Sky Bass tabs (ver.1)

Artists:  A B C D E F G H I J K L M N O P Q R S T U V W X Y Z # 

Horses In The Sky Bass tabs (ver.1)

The Sound Of Animals Fighting
Rating:
0/5 (0 votes)

Hard to play? Try these video lessons and learn fast.
                The other one was a little off to me i guess heres my verison of it.
standard tuning

Intro-also used through most parts of the song
g|---------------------------------------|
b|---------------------------------------|
a|-2-0---3-7-5-2-0---3-7-5---------------|
e|-----1-----------1---------------------|

Verse
after all, they've made them robbed
i do either                                or just
g|---------------------------------------|-----------------------|
b|---------------------------------------|-----------------------|
a|-3-3-----------------------------------|-----------------------|
e|-----1-1-1-1-1-1-1-1--1-1-1-1-1-1-1-1-1|-1-1--1-1-1-1-1-1-1-1--|

Chorus
Something to show me a change
d c a
g|----------------------------------------|
b|----------------------------------------|
a|-5x12-3x12-0x12-5-5-5-5-5-5-3-3-3-3-3-3-|
e|----------------------------------------|

guitar solo (if you throw in some slides to the 13th fret at the right times it sounds alright)
g|----------------------------------------------------|
b|----------------------------------------------------|
a|-5-5-5-5-5-5-5-5-5-5-5-3-3-3-3-3-3-3-3-3-3-3-3-x2---|
e|----------------------------------------------------|

g|----------------------------------------------------|
b|----------------------------------------------------|
a|-7-7-7-7-7-7-7-7-7-7-7-5-5-5-5-5-5-5-5-5-5-5-5-5-x2-|
e|----------------------------------------------------|

yeah thats it for me, thats all i use and it goes with the song
            
Hard to play? Try these video lessons and learn fast. | Correct




comments powered by Disqus
↑ Back to top | Tablatures and chords are parodies/interpretations of the original songs. You may use it for private study, scholarship, research or language learning purposes only