» » »

Another Leather Lung Tabs (ver.2)

Artists:  A B C D E F G H I J K L M N O P Q R S T U V W X Y Z # 

Another Leather Lung Tabs (ver.2)

The Sound Of Animals Fighting
Rating:
4/5 (3 votes)

Hard to play? Try these video lessons and learn fast.
                -------------------------------------------------------------------------------------------------|
--------2h4--------------------------2h4-----------------------------2h4---------------0--2------|
-------------1-------3--------------------1-------3------4-3--------------1------3-----------3---|
----4----------------------------4-------------------------------4-------------------------------|
-2--------------4~6-----------2--------------4~6--------------2-------------4~6------------------|
-------------------------------------------------------------------------------------------------|

-------------------------------------------------------------------------------------------------|
-----------------2------------------------------2h4-----------------------2h4---------------0-2--|
---------------1-----------------1-------------------1-------3-----------------1-------3---------|
----4--------4-------------4--------4--------4-------------------------4-------------------------|
-2-----2--2----------1--------------------2-------------4~6---------2-------------4~6------------|
-------------------------------------------------------------------------------------------------|

-------------------------------------------------------------------------------------------------|
------2h4---------------0--2---------------------2---------------------------2h4-----------------|
-----------1-------3----------3----------------1---------------1------------------1-------3------|
---4--------------------------------4--------4--------------4------4-------4---------------------|
2-------------4~6----------------2-----2--2------------1----------------2------------4~6---------|
-------------------------------------------------------------------------------------------------|

-------------------------------------------------------------------------------------------------|
------2h4----------------0------------2h4--------------0--2---------------------2----------------|
-----------1-------3--------3--------------1-------3---------3----------------1------------------|
---4-------------------------------4-------------------------------4--------4-----------4----6~4-|
2-------------4~6---------------2-------------4~6---------------2-----2--2---------1-------1-----|
-------------------------------------------------------------------------------------------------|

6--------5-----------------6--------------6--------5--------------------------------6------------|
---7--------6--------7--------6--------------7--------6--------7-----------7--6--------7---------|
------8--------7--8-----8--------8-----8--------8--------7--8-----8-----8--------8--------8------|
------------------------------------8--------------------------------8---------------------------|
-------------------------------------------------------------------------------------------------|
-------------------------------------------------------------------------------------------------|

5---------------------------------6-----------7-----5--6---------------------5--6--------55------|
---6--------7--------6---------------7-----6--------------7-----6--7--6------------7---------66--|
------7--8-----8--------8-----8---------8--------8-----------8-----------8------------88---------|
------------------8--------8---------------------------------------------------------------------|
-------------------------------------------------------------------------------------------------|
-------------------------------------------------------------------------------------------------|

-----------------------------6---------55---------------------------------6---------55-----------|
--------7--------6--------------7----------66---------7--------6--7--6-------7----------66-------|
77---------8--------8-----8--------88----------77--------8--------------8-------88----------77---|
----8---------8--------8---------------------------8--------8------------------------------------|
-------------------------------------------------------------------------------------------------|
-------------------------------------------------------------------------------------------------|

------------------------6-----------7-----5--6--------------------------13---------10-------10---|
---7--------6--------------7-----6--------------7-----6--7--6---------0--------------------------|
------8--------8-----8--------8--------8-----------8-----------7---------------------------------|
8--------8--------8-----------------------------------------------8---------------9--------------|
-------------------------------------------------------------------------------------------11----|
-------------------------------------------------------------------------------------------------|

----7--------------------------------------------------------------------------------------------|
-------------------------------------------------------------------------------------------------|
---7---------------------------------------------------------------------------------------------|
-------------------------------------------------------------------------------------------------|
-------------------------------------------------------------------------------------------------|
-------------------------------------------------------------------------------------------------|

Well this is as far as I have gotten.  I will finish the last half soon.
            
Hard to play? Try these video lessons and learn fast. | Correct




comments powered by Disqus
↑ Back to top | Tablatures and chords are parodies/interpretations of the original songs. You may use it for private study, scholarship, research or language learning purposes only