>
 >
Another Leather Lung

Another Leather Lung Guitar Tabs

The Sound Of Animals Fighting - Another Leather Lung chords, tabs, tablatures, lyrics

Guitar lessons | Add/correct | Request | Top 50 tabs Artists:  A B C D E F G H I J K L M N O P Q R S T U V W X Y Z 0-9

Another Leather Lung Guitar Tabs – The Sound Of Animals Fighting

CD, Sheet music, Poster

Do you like Another Leather Lung? Share with your friends now
TabsTabs v2
-----------------------------------------------------------------
-----------------------------------------------------------------

This is not totally accurate but if you play it for someone who
knows the song, they might be able to guess what you're playing!
Please improve on it!

Also, there are two guitars in the song. This tab is for 1 guitar,
which is a mesh of both from the recording.

Tuning: Drop D and down 1/2 step

00:00
e|---------------------------------------------------------------|
B|-----3/5--------------------3/5--------------------------------|
G|---------7------4---------------7------4---5-4\----------------|
D|--5----------------------5-------------------------------------|
A|3----------5/7---------3----------5/7--------------------------|
D|---------------------------------------------------------------|

e|---------------------------------------------------------------|
B|-----3/5----------------------------------3--------------------|
G|---------7------4-------4-7-5-----------4----------------------|
D|--5-------------------7-------------5----------5---7-5---------|
A|3----------5/7------5-----------3-5---5------3---3-----5\------|
D|---------------------------------------------------------------|

e|---------------------------------------------------------------|
B|-----3/5--------------------3/5--------------------------------|
G|---------7------4---------------7------4---4-5\----------------|
D|--5----------------------5-------------------------------------|
A|3----------5/7---------3----------5/7--------------------------|
D|---------------------------------------------------------------|

e|---------------------------------------------------------------|
B|-----3/5----------------------------------3--------------------|
G|---------7------4-------4-7-5-----------4----------------------|
D|--5-------------------7-------------5----------5---7-5---------|
A|3----------5/7------5-----------3-5---5------3---3-----5\------|
D|---------------------------------------------------------------|

e|---------------------------------------------------------------|
B|-----3/5--------------------3/5--------------------------------|
G|---------7------4---------------7------4---5-4\----------------|
D|--5----------------------5-------------------------------------|
A|3----------5/7---------3----------5/7--------------------------|
D|---------------------------------------------------------------|

e|---------------------------------------------------------------|
B|-----3/5----------------------------------3--------------------|
G|---------7------4-------4-7-5-----------4----------------------|
D|--5-------------------7-------------5----------5---7-5---------|
A|3----------5/7------5-----------3-5---5------3---3-----5\------|
D|---------------------------------------------------------------|

00:49
e|---------------------------------------------------------------|
B|---12-----11-----7---------------------------------------------|
G|9----12-9---11-9---12-11-9-12-11-9-----------------------------|
D|---------------------------------------------------------------|
A|---------------------------------------------------------------|
D|---------------------------------------------------------------|

e|---------------------------------------------------------------|
B|---12-----11-----7---------------------------------------------|
G|9----12-9---11-9---12-11-9-11-12-11----------------------------|
D|---------------------------------------------------------------|
A|---------------------------------------------------------------|
D|---------------------------------------------------------------|

e|---------------------------------------------------------------|
B|---12-----11-----7---------------------------------------------|
G|9----12-9---11-9---12-11-9-12-11-9-----------------------------|
D|---------------------------------------------------------------|
A|---------------------------------------------------------------|
D|---------------------------------------------------------------|

e|---------------------------------------------------------------|
B|---12-------13---11-12-----------------------------------------|
G|9----12-9-11---11-----12-9-11-12-11-7--------------------------|
D|--------------------------------------9------------------------|
A|---------------------------------------------------------------|
D|---------------------------------------------------------------|

e|---------------------------------------------------------------|
B|---12------1111------------------------------------------------|
G|9----12-99-----1111-7----12-11-9-11-9--------------------------|
D|----------------------9---------------9------------------------|
A|---------------------------------------------------------------|
D|---------------------------------------------------------------|

e|---------------------------------------------------------------|
B|---12------1111------------------------------------------------|
G|9----12-99-----1111-7----12-11-9-11-12-11----------------------|
D|----------------------9----------------------------------------|
A|---------------------------------------------------------------|
D|---------------------------------------------------------------|

e|---------------------------------------------------------------|
B|---12------1111------------------------------------------------|
G|9----12-99-----1111-7----12-11-9-11-9--------------------------|
D|----------------------9---------------9------------------------|
A|---------------------------------------------------------------|
D|---------------------------------------------------------------|

e|---------------------------------------------------------------|
B|---12-------13---11-12-----------------------------------------|
G|9----12-9-11---11-----12-9-11-12-11-7--------------------------|
D|--------------------------------------9------------------------|
A|---------------------------------------------------------------|
D|---------------------------------------------------------------|

01:18
e|14------11--------8--------5-----------------------------------|
B|13------10--------7--------4-----------------------------------|
G|---------------------------------------------------------------|
D|---------------------------------------------------------------|
A|---------------------------------------------------------------|
D|---------------------------------------------------------------|

01:26
e|---------------------------------------------------------------|
B|-----3/5--------------------3/5--------------------------------|
G|---------7------4---------------7------4---5-4\----------------|
D|--5----------------------5-------------------------------------|
A|3----------5/7---------3----------5/7--------------------------|
D|---------------------------------------------------------------|

e|---------------------------------------------------------------|
B|-----3/5----------------------------------3--------------------|
G|---------7------4-------4-7-5-----------4----------------------|
D|--5-------------------7-------------5----------5---7-5---------|
A|3----------5/7------5-----------3-5---5------3---3-----5\------|
D|---------------------------------------------------------------|

e|---------------------------------------------------------------|
B|-----3/5--------------------3/5--------------------------------|
G|---------7------4---------------7------4---5-4\----------------|
D|--5----------------------5-------------------------------------|
A|3----------5/7---------3----------5/7--------------------------|
D|---------------------------------------------------------------|

e|---------------------------------------------------------------|
B|-----3/5----------------------------------3--------------------|
G|---------7------4-------4-7-5-----------4----------------------|
D|--5-------------------7-------------5----------5---7-5---------|
A|3----------5/7------5-----------3-5---5------3---3-----5\------|
D|---------------------------------------------------------------|

01:58
e|---------------------------------------------------------------|
B|-----3------5-----7---5---8---7\-------------------------------|
G|---------------------------------------------------------------|
D|--5-------7-----9---7---10--9----------------------------------|
A|3-------5-----7------------------------------------------------|
D|---------------------------------------------------------------|

e|---------------------------------------------------------------|
B|--3----7-----8-7---5---8-7-8-7---------------------------------|
G|---------------------------------------------------------------|
D|---5-----5-----------------------------------------------------|
A|3----5-----7-----5---5-----------------------------------------|
D|---------------------------------------------------------------|

e|---------------------------------------------------------------|
B|-----3------5-----8---7--5--8-7-5-7----------------------------|
G|---------------------------------------------------------------|
D|--5-------7-----9----------------------------------------------|
A|3-------5-----7-----7---5--------------------------------------|
D|---------------------------------------------------------------|

e|---------------------------------------------------------------|
B|------3\-------------------------------------------------------|
G|---------------------------------------------------------------|
D|--5-7-------5---7-----5\---------------------------------------|
A|3---------3---5--5--3------------------------------------------|
D|---------------------------------------------------------------|

e|---------------------------------------------------------------|
B|-----3------5-----7---5---8---7\-------------------------------|
G|---------------------------------------------------------------|
D|--5-------7-----9---7---10--9----------------------------------|
A|3-------5-----7------------------------------------------------|
D|---------------------------------------------------------------|

e|---------------------------------------------------------------|
B|--3----7-------7---5---8-5--7----------------------------------|
G|---------------------------------------------------------------|
D|---5-----5---5-------------------------------------------------|
A|3----5-----7-----5---5-----------------------------------------|
D|---------------------------------------------------------------|

e|---------------------------------------------------------------|
B|-----3------5-----8---7--5--8-7-5-7----------------------------|
G|---------------------------------------------------------------|
D|--5-------7-----9----------------------------------------------|
A|3-------5-----7-----7---5--------------------------------------|
D|---------------------------------------------------------------|

e|---------------------------------------------------------------|
B|------3\-------------------------------------------------------|
G|---------------------------------------------------------------|
D|--5-7-------5---7-----5\---------------------------------------|
A|3---------3---5--5--3------------------------------------------|
D|---------------------------------------------------------------|

02:31
e|---------------------|
B|-----10-----8\5------|
G|---------------------|
D|--9-------7----------| X3
A|7-------5------------|
D|---------------------|

e|---------------------|
B|-----5------8/10\5---|
G|---------------------|
D|--3-------7----------|
A|2-------5------------|
D|---------------------|

e|---------------------|
B|-----10-----8\5------|
G|---------------------|
D|--9-------7----------| X2
A|7-------5------------|
D|---------------------|

e|---------------------|
B|-----10-----88\5-----|
G|---------------------|
D|--9-------77---------|
A|7-------55-----------|
D|---------------------|

e|---------------------|
B|-----5------8/10\5---|
G|---------------------|
D|--3-------7----------|
A|2-------5------------|
D|---------------------|

e|---------------------|
B|-----10-----8\6------|
G|---------------------|
D|--9-------7----------|
A|7-------5------------|
D|---------------------|

e|---------------------|
B|-----10-----88\6-----|
G|---------------------|
D|--9-------77---------|
A|7-------55-----------|
D|---------------------|

e|---------------------|
B|-----10-----88\5-----|
G|---------------------|
D|--9-------77---------|
A|7-------55-----------|
D|---------------------|

(into distortion)
02:57
e|---------------------------------------------------------------|
B|---------------------------------------------------------------|
G|---------------------------------------------------------------|
D|---------------------------------------------------------------|
A|---------------------------------------------------------------|
D|99999--55555--10101010--7-5-7----------------------------------|

e|--7----6----------------------|
B|---7-5---7-4-5--8-7-5-7-5-4---|
G|------------------------------|
D|2-----------------------------|
A|2-----------------------------|
D|2-----------------------------|

e|--7----6----------------------|
B|5--7-5---7-4-5--7-5-4-7-8-7---|
G|------------------------------|
D|------------------------------|
A|------------------------------|
D|------------------------------|

e|--7----6----------------------|
B|---7-5---7-4-5--8-7-5-7-5-4---|
G|------------------------------|
D|2-----------------------------|
A|2-----------------------------|
D|2-----------------------------|


e|--7-----8-5-7-7---------------|
B|5--7-5-7-------7-5-7-8-7-5-4--|
G|------------------------------|
D|------------------------------|
A|------------------------------|
D|------------------------------|

03:29
e|5------7-------11--------14------------------------------------|
B|4------8-------10--------13------------------------------------|
G|---------------------------------------------------------------|
D|--------------------------------8\--8\--8\---------------------|
A|--------------------------------6\--6\--6\---------------------|
D|-------------------------------------------6\------------------|

03:44
e|-------------------------------------|
B|-------------------------------------|
G|-------------------------------------|
D|9\--5-4-----4---9\--5-4-----4--------| X2
A|7\-----5-2-5-5--7\-----5-2-5-5-2-5---|
D|-------------------------------------|

e|-------------------------------------|
B|-------------------------------------|
G|-------------------------------------|
D|-888--111111--141414-----------------|
A|-666--9-9-9---121212-----------------|
D|-------------------------------------|

e|-------------------------------------|
B|-------------------------------------|
G|-------------------------------------|
D|9\--5-4-----4---9\--5-4-----4--------| X2
A|7\-----5-2-5-5--7\-----5-2-5-5-2-5---|
D|-------------------------------------|

e|-------------------------------------|
B|-------------------------------------|
G|-------------------------------------|
D|-888--111111--141414-----------------|
A|-666--9-9-9---121212-----------------|
D|-------------------------------------|

04:11
e|-------------------------------------|
B|-------------------------------------|
G|-------------------------------------|
D|-8\----------9\----------------------|
A|-6\-6-6-6-6--7\-7-7-777-777----------|
D|-------------------------------------|

e|-------------------------------------|
B|-------------------------------------|
G|-------------------------------------|
D|-8\----------9\----------------------|
A|-6\-6-6-666--7\-7-7-777-777-777------|
D|-------------------------------------|

e|-------------------------------------|
B|-------------------------------------|
G|-------------------------------------|
D|-8\----------9\----------------------|
A|-6\-6-6-666--7\-7-7-777-777-777--777-|
D|-------------------------------------|

04:18
e|---------------------------------------------------------------|
B|---------------------------------------------------------------|
G|---------------------------------------------------------------|
D|99999--77777--55555--------------------------------------------|
A|77777--55555--33333--------------------------------------------|
D|---------------------5h7-5h7-----------------------------------|

e|---------------------------------------------------------------|
B|---------------------------------------------------------------|
G|---------------------------------------------------------------|
D|---------------------------------------------------------------|
A|0-2-3-5-7--0-2-3-5-3-----2-3-2---------------------------------|
D|---------------------5-7--------5h7-5h7-5h7--------------------|

e|---------------------------------------------------------------|
B|---------------------------------------------------------------|
G|---------------------------------------------------------------|
D|---------------------------------------------------------------|
A|0-2-3-5-7--0-2-3-5-3------2-3-2--------------------------------| 
D|----------------------5-7-------5h7-5h7------------------------|

e|---------------------------------------------------------------|
B|---------------------------------------------------------------|
G|---------------------------------------------------------------|
D|---------------------------------------------------------------|
A|0-2-3-5-7--0-2-3-5-3-----2-3-2---------------------------------|
D|---------------------5-7--------5h7-5h7-5h7--------------------|

e|---------------------------------------------------------------|
B|---------------------------------------------------------------|
G|---------------------------------------------------------------|
D|---------------------------------------------------------------|
A|0-2-3-5-7--0-2-3-5-3------2-3-2--------------------------------| 
D|----------------------5-7-------5h7-5h7------------------------|

e|---------------------------------------------------------------|
B|---------------------------------------------------------------|
G|---------------------------------------------------------------|
D|---------------------------------------------------------------|
A|0-2-3-5-7--0-2-3-5-3-----2-3-2---------------------------------|
D|---------------------5-7--------5h7-5h7-5h7--------------------|

e|---------------------------------------------------------------|
B|---------------------------------------------------------------|
G|---------------------------------------------------------------|
D|---------------------------------------------------------------|
A|0-2-3-5-7--0-2-3-5-3------2-3-2--------------------------------| 
D|----------------------5-7-------5h7-5h7------------------------|

e|---------------------------------------------------------------|
B|---------------------------------------------------------------|
G|---------------------------------------------------------------|
D|---------------------------------------------------------------|
A|0-2-3-5-7--0-2-3-5-3-----2-3-2---------------------------------|
D|---------------------5-7--------5h7-5h7-5h7--------------------|



04:46 (Yeah, this is mostly just a guesss)
e|---------------------------------------------------------------|
B|---------------------------------------------------------------|
G|----------6h8---------------6h8-6h8h10-------------------------|
D|8-----6h8-----8-----6h8-6h8------------------------------------|
A|6-6-8---------6-6h8--------------------------------------------|
D|---------------------------------------------------------------|

e|---------------------------------------------------------------|
B|---------------------------------------7h8h10------------------|
G|----------6h8---------------6h8-6h8h10-------------------------|
D|8-----6h8-----8-----6h8-6h8------------------------------------|
A|6-6-8---------6-6h8--------------------------------------------|
D|---------------------------------------------------------------|

e|----------------------------------------------7h8h10-----------|
B|---------------------------------------7h8h10------------------|
G|----------6h8---------------6h8-6h8h10-------------------------|
D|8-----6h8-----8-----6h8-6h8------------------------------------|
A|6-6-8---------6-6h8--------------------------------------------|
D|---------------------------------------------------------------|

e|---------------------------------------------------------------|
B|---------------------------------------------------------------|
G|----------6h8---------------6h8--------------------------------|
D|8-----6h8-----8-----6h8-6h8------------------------------------|
A|6-6-8---------6-6h8--------------------------------------------|
D|---------------------------------------------------------------|

04:56
e|-------------------------------------|
B|-------------------------------------|
G|-------------------------------------|
D|9\--5-4-----4---9\--5-4-----4--------| X4
A|7\-----5-2-5-5--7\-----5-2-5-5-2-5---|
D|-------------------------------------|

e|-------------------------------------|
B|-------------------------------------|
G|-------------------------------------|
D|9\--5-4-----4------------------------|
A|7\-----5-2-5-------------------------|
D|-------------------------------------|


| /  slide up
| \  slide down
| h  hammer-on
| p  pull-off
| ~  vibrato
| +  harmonic
| x  Mute note





Comments


Popular The Sound Of Animals Fighting tabs & chords
Act II: All Is Ash Or The Light Shining Through It" Bass Tabs
Horses In The Sky Bass Tabs
Act I: Chasing Suns 1 Tabs
Act II: All Is Ash Or The Light Shining Through It" Tabs
Act IV: You Don't Need A Witness Tabs
Cellophane Intro Tabs
I, The Swan Tabs
On The Occasion Of Wet Snow 1 Tabs
The Heraldic Beak Of The Manufacturer's Medallion Tabs
Heretic Ukulele


Song lyrics



↑ Back to top | Tablatures and chords are parodies/interpretations of the original songs. You may use it for private study, scholarship, research or language learning purposes only
© 2014 AZChords.com Contact us | Privacy policy | DMCA | Add/correct tabs | Request tabs | Top 50 tabs